Song name
# A B C D E F G H I J K L M N O P Q R S T U V W X Y Z

Dead Milkmen - Takin Retards To The Zoo tab

-------------------------------------------------------------------------------
			     Takin' Retards to the Zoo - the Dead Milkmen
-------------------------------------------------------------------------------
Tabbed by: Russ
Email: Eggnoggy69@aim.com

Tuning: EADGBE

(( Verse ))

Bass:
G|--------|
D|--------| as many times as needed
A|--3-5-3-|
E|-5------|

Guitar:
e|-------|
B|-------|
G|-------|
D|-7--77-|
A|-7--77-|
E|-5--55-|

(( Chorus ))

Bass:
G|---------------------------|
D|---------------------------|
A|-3-3-3-3-----3--3-3-3-3----|
E|---------1-1-----------1-1-|

Guitar:
e|--------------|
B|--------------|
G|-5-5-5-5----5-|
D|-5-5-5-5-33-5-|
A|-3-3-3-3-33-3-|
E|---------11---|

Probably one of the funniest songs I've ever heard

//Russ//

Tap to rate this tab
# A B C D E F G H I J K L M N O P Q R S T U V W X Y Z