Song name
# A B C D E F G H I J K L M N O P Q R S T U V W X Y Z

Dead Milkmen - Big Time Operator tab

E------------------------3--------------------------0-------|
B------------------------3--------------------------1-------|
D-----------------------------------------------------------|
G--------------------------x2------2-2-3-3-2-2---------x1---|
A-------2-2-3-3-2-2------------3-3-------------3------------|
E---3-3-------------3---------------------------------------|

E------------------------3-----------------------------------|
B------------------------3-----------------------------------|
D--------------------------------2-2-3-3-2-2-----------------|
G----------------------------3-3-----------------2-2-3-3-2-2-|
A-------2-2-3-3-2-2--------------------------3-3-------------|
E---3-3-------------3----------------------------------------|

E------------------------3-|
B------------------------3-|
D--------------------------|
G--------------------------|
A-------2-2-3-3-2-2--------|
E---3-3-------------3------|

My first (and possibly last) tab.
I couldn't believe it was not anywhere on the net,
because it is pretty easy to figure out.
Sorry I could not decode the solo.
Tap to rate this tab
# A B C D E F G H I J K L M N O P Q R S T U V W X Y Z