Song name
# A B C D E F G H I J K L M N O P Q R S T U V W X Y Z

Dead Milkmen - Big Lizard tab

Help us improve GuitareTab! Take a short survey!
Fun solo.

/=ring

E|----------------------------|
B|----------------------------|
G|----------------------------|
D|---------------------2/-22--|
A|--23-232/-000--23-23--------|
E|-3--1----------3--1---------|

E|---------------------------------------|
B|---------------------------------------|
G|---------------------------------------|
D|-3-2-0-------0-----0-------------------|
A|-------3-2-3---3-2---3-2-3-2-0---------|
E|-------------------------------3-2-3-0-|

E|--------------------------------------------|
B|--------------------------------------------|
G|--------------------------------------------|
D|----3-3-2-0-------0-----0-------------------|
A|------------3-2-3---3-2---3-2-3-2-0---------|
E|-00---------------------------------3-2-3-0-|

Have Fun and Good Luck
Related for Big Lizard tab