Guitaretab - guitar tabs
Song name
# A B C D E F G H I J K L M N O P Q R S T U V W X Y Z

Dead Milkmen - Surfing Cow tab

-------------------------------------------------------------------------------
			     SONG NAME - Band Name
-------------------------------------------------------------------------------
Tabbed by: Animeguy!
Email:

Tuning: normal tuning

e|--------------------------------------------------------------------------|
B|--------------------------------------------------------------------------|
G|-------------------4------------------------------------------------------|
D|---5-2---------------5----------------------------------------------------|
A|-2-----5-3-2-3-2-2-----5-3-2-3-2------------------------------------------|
E|--------------------------------------------------------------------------|

e|--------------------------------------------------------------------------|
B|--------------------------------------------------------------------------|
G|-9---7--------------------------------------------------------------------|
D|---9---9-10-9-7-9----9----------------------------------------------------|
A|------------------10---10-5-3-2-3-2---------------------------------------|
E|--------------------------------------------------------------------------|

e|--------------------------------------------------------------------------|
B|--------------------------------------------------------------------------|
G|-9---7--------------------------------------------------------------------|
D|---9---9-10-9-7-9----9----9----9-10-9-10-9--------------------------------|
A|------------------10---10---10--------------------------------------------|
E|--------------------------------------------------------------------------|
[ Tab from: http://www.guitaretab.com/d/dead-milkmen/50382.html ]
e|--------------------------------------------------------------------------|
B|--------------------------------------------------------------------------|
G|-12-12-12-14-9-14-12-17-16-14-12-11/12------------------------------------|
D|--------------------------------------------------------------------------|
A|--------------------------------------------------------------------------|
E|--------------------------------------------------------------------------|

This is right after he says 
"Gonna find my baby, gonna find her now, she looks like Patty Smith, SURFING COW!!!!!"
I haven't figured out the chords yet, but here are the main notes:

e|--------------------------------------------------------------------------|
B|--------------------------------------------------------------------------|
G|--------------------------------------------------------------------------|
D|-9-9-7-7-10-10-9-9-----------------9-9-7-7-10-10-9-9----------------------|
A|-------------------7-7-7-7-7-7-7-7-------------------7-7-7-7-7-7-7-7------|
E|--------------------------------------------------------------------------|


e|--------------------------------------------------------------------------|
B|--------------------------------------------------------------------------|
G|-----7-7-------9-9-7-7----------------------------------------------------|
D|-9-9-----10-10---------10-10----------------------------------------------|
A|--------------------------------------------------------------------------|
E|--------------------------------------------------------------------------|

then repeat the whole song

| /  slide up
| \  slide down
| h  hammer-on
| p  pull-off
| ~  vibrato
| +  harmonic
| x  Mute note
=============================================================================
Related for Surfing Cow tab
Advertisement will be closed in 10 seconds