Guitaretab - guitar tabs
Song name
# A B C D E F G H I J K L M N O P Q R S T U V W X Y Z

Dead Milkmen - Bitchin Camaro tab

Easy song,and REALLY fun to play ate gigs.


INTRO:

e-------------------------------------------------------------|
B-------------------------------------------------------------|
G-------------------------------------------------------------|
D-------------------------------------------------------------|
A------------3--5--6--5--3h5p3--------------------------------|
E----0h3--5---------------------------------------------------|
[ Tab from: http://www.guitaretab.com/d/dead-milkmen/71308.html ]
VERSE:
e-------------------------------------------------------------|
B-------------------------------------------------------------|
G-------------------------------------------------------------|
D-------------------------------------------------------------|
A-------------------------------------------------------------|
E---3--5--2--4--3--5--2--6------------------------------------|


CHORUS:

e-------------------------------------------------------------|
B-------------------------------------------------------------|
G-------------------------------------------------------------|
D-------------------------------------------------------------|
A-------------------------------------------------------------|
E----7--7--7--5--5--7--7--7--5--5-----------------------------|

Have fun....
Related for Bitchin Camaro tab
Advertisement will be closed in 10 seconds