Song name
# A B C D E F G H I J K L M N O P Q R S T U V W X Y Z

Dead Milkmen - Thing That Only Eats Hippies tab

		The Thing That Only Eats Hippies by the Dead Milkmen

Tabbed by: Brad Carter 
Email: lets_steal_everything@yahoo.com

Tuning: Standard
X = mute note 

Verse 
e|---------|
B|---------|
G|---------|
D|5--5-3-5-|  Play until chorus begins 
A|5--3-3-3-|
E|3--3-1-3-|

Chorus 
  C       A#    C    A#                        C       A#    C    A#      
e|-----------------------|--------------------|-----------------------|
B|---1-----2-----1----2--|--------------------|---1-----2-----1----2--|
G|--0-----2-----0----2---|--------------------|--0-----2-----0----2---|
D|-2-----1-----2----1----|5--5-3-5---5--5-3-5-|-2-----1-----2----1----|
A|3-----0-----3----0-----|5--5-3-5---5--5-3-5-|3-----0-----3----0-----|
E|-----------------------|3--3-1-3---3--3-1-3-|-----------------------|



  A#           F            C 
e|0|         e|1|         e|0|
B|1|         B|1|         B|1|
G|2|Several  G|2|Several  G|0|Several  
D|2|Times    D|3|Times    D|2|Times
A|0|         A|3|         A|3|
E|-|         E|1|         E|0|


Back to Verse 
e|---------|
B|---------|
G|---------|
D|5--5-3-5-|  Play until chorus begins again 
A|5--3-3-3-|
E|3--3-1-3-|

Chorus 
  C       A#    C    A#                        C       A#    C    A#      
e|-----------------------|--------------------|-----------------------|
B|---1-----2-----1----2--|--------------------|---1-----2-----1----2--|
G|--0-----2-----0----2---|--------------------|--0-----2-----0----2---|
D|-2-----1-----2----1----|5--5-3-5---5--5-3-5-|-2-----1-----2----1----|
A|3-----0-----3----0-----|5--5-3-5---5--5-3-5-|3-----0-----3----0-----|
E|-----------------------|3--3-1-3---3--3-1-3-|-----------------------|



  A#           F            C 
e|0|         e|1|         e|0|
B|1|         B|1|         B|1|
G|2|Several  G|2|Several  G|0|Several Times 
D|2|Times    D|3|Times    D|2|
A|0|         A|3|         A|3|
E|-|         E|1|         E|0|


Bridge (starts at “Followin the dead is how…”)
  C       A#
e|----0------0---|
B|---1-1----2-2--|
G|--0------1-----| Play until the end of the bridge (…hippy souffle, hey...)
D|-2------1------|
A|3------0-------|
E|---------------|

After the bridge go back to the verse and the chorus one more time the play this:


Outro 
e|----------------3-----------------3|
B|----------------3-----------------3|
G|----------------3-----------------3|
D|5-5--5-5--5-x-5---5-5--5-5--5-x-5--|Play until end
A|5-5--5-5--5-x-5---5-5--5-5--5-x-5--|
E|3-3--3-3--3-x-3---3-3--3-3--3-x-3--|

===============================================================================
Tap to rate this tab
 
# A B C D E F G H I J K L M N O P Q R S T U V W X Y Z