Song name
# A B C D E F G H I J K L M N O P Q R S T U V W X Y Z

Dead Milkmen - Beach Party Vietnam tab

The song really consists of two riffs.

Intro:

Bass:

G---------------5-4-|
D------4-4---------.|
A-5-5-------5-5----.|
E-------------------|

Guitar:

e---2---2---2-3--0--|
B---3---3---3-3--3--|
G---2---2---2-2--2-.|
D-0---0---0--------.|
A-------------------|
E-------------------|

Chorus:

It's a

e---2---2---2-3--0--|
B---3---3---3-3--3--|
G---2---2---2-2--2-.|
D-0---0---0--------.|
A-------------------|
E-------------------|
beach party...

e---3---3---3---3-|
B---3---3---3---3-|
G---0---0---0---0-|
D---0---0---0---0-|
A---2---2---2---2-|
E-3---3---3---3---|
Cookin' hot dogs...

e---2---2---2-3--0--|
B---3---3---3-3--3--|
G---2---2---2-2--2-.|
D-0---0---0--------.|
A-------------------|
E-------------------|
beach party...

e-2-2-2--2-2--2-3-0--|
B-3-3-3--3-3--3-3-3--|
G-2-2-2--2-2--2-2-2-.|
D-0-0-0--0-0--0-0-0-.|
A--------------------|
E--------------------|

Verse:

e-2-2-2--2-2--2-3-0--|
B-3-3-3--3-3--3-3-3--|
G-2-2-2--2-2--2-2-2-.|
D-0-0-0--0-0--0-0-0-.|
A--------------------|
E--------------------|
Frankie and Annette...
Tap to rate this tab
# A B C D E F G H I J K L M N O P Q R S T U V W X Y Z