Song name
# A B C D E F G H I J K L M N O P Q R S T U V W X Y Z

Dead Moon - 13 Going On 21 tab

13 going on 21 - Dead Moon
from the album 'strange pray tell' 1992

words and music by Fred Cole / Dead Moon
tablature transscription by: Hidde, gitaargedoe@yahoo.com


I don't usually write down the songs that I figure out, so here is more or less my first! 
Hope you enjoy it (and find this transscription workable ;-) If you need the text to the song: it's on the LP cover and also findable on the internet, if you really cant find it I can also mail it to you.   


Intro riff
               tremolo 		tremolo		   tremolo	
		 //		  //	             //  
e|---------------x----------------x------------------0------------------|
b|-0-0-0h1-0-----0----0-0-0h1-----x----0-0-0h1-0-----3----0-0-0h1-0-----|
g|-----------2-0-0------------2-0-0--------------2-0-2--------------2-0-|
d|---------------2----------------0------------------0------------------|
a|---------------2----------------2------------------0------------------|
e|---------------0----------------3------------------x------------------|

The chords for the actual song are Em Em G D (Em en G only the 3 or 4 lower strings, for the D don't use the high E)

The intro riff is used after each verse

Solo (if you can call freds string abuse a solo....)

	    extreme tremolo down 
		 // 
e|---------------x-------------------------------------------------------------------------|
b|-0-0-0h1-0-----0-------2s4-2-0---0--------s3-3-3-3--5--0----s12-12-12-12-10--------------|
g|-----------2-0-0---------------4---4-2--------------------------------------12-11-h12-9--|
d|---------------2-------------------------------------------------------------------------|
a|---------------2-------------------------------------------------------------------------|
e|---------------0-------------------------------------------------------------------------|

										let ring 
										    //
e|-----------------------15-15-15-15-17-17-17-17---------15-15-15-15-17-17-17-17-19-19-----|
b|--15-15-15-15-17-------------------------------17-17-------------------------------------|
g|-----------------16----------------------------------------------------------------------|
d|-----------------------------------------------------------------------------------------|
a|-----------------------------------------------------------------------------------------|
e|-----------------------------------------------------------------------------------------|



Please send all your comments/corrections/additions to gitaargedoe@yahoo.com
Tap to rate this tab
# A B C D E F G H I J K L M N O P Q R S T U V W X Y Z