Song name
# A B C D E F G H I J K L M N O P Q R S T U V W X Y Z

Dead Moon - Cant Do That tab

Can't do that (Fred Cole)

C

C        G               C         F
Your situation's on the top of my head
   G                 Am
I don't know what to do
I know it's painful but it's got to be said
These things you're going through

Am       G        C
Oh, you can't do that
Oh, you can't do that
Oh, you can't do

C           G            C             F
You always had a way of keeping things in
       G               Am
it's just the way you are
It's only lately I don't know where you've been
I'm afraid you'll go to far

Am       G         C
Oh, you can't do that (3x)


Solo

E|------------------------------------------|
B|----0-1-3-5--5-6-5-3-5--------------------|
G|--2--------------------5-4-2-2--2-2-0-2-0-|
D|------------------------------------------|   (2x)
A|------------------------------------------|
E|------------------------------------------|



E|--6-5--3-3-------6-5--3-3-----6-5--3-3---|
B|----------3-3-5----------3-5----------3--|
G|-----------------------------------------|
D|-----------------------------------------|
A|-----------------------------------------|
E|-----------------------------------------|


C           G             C           F
I miss the way we were before we got lost
         G           Am
It will never come again
I'm only trying to get the wires uncrossed
Before it all ends

Am       G         C
Oh, you can't do that   (3x)

C

Am       G         C
No, you canīt do that
Oh, you canīt do that
No, you canīt do that




CHORDS:

E|-----0----0----0----0----|
B|-----1----0----1----1----|
G|-----0----0----2----2----|
D|-----2----0----2----3----|
A|-----3----2----0----0----|
E|-----0----3----0----0----|
       C    G    Am   F



Dead Moon:
Fred Cole-  Guitar, Vocals
Toody Cole-  Bass, Vocals
Andrew Loomis- Drums

"Canīt Do That" on "Strange Pray Tell" LP (Music Maniac Records, MMLP 048, 1992)
Tap to rate this tab
 
# A B C D E F G H I J K L M N O P Q R S T U V W X Y Z