Song name
# A B C D E F G H I J K L M N O P Q R S T U V W X Y Z

Dead Moon - In The Altitudes chords

Highlighted       Show chord diagrams
In The Altitudes (Fred Cole)


INTRO:
E|------------------0-|
B|----3------------1--|
G|---4-----0------0---|   (2x)
D|--5--5--4-0----2----|
A|-----------5--------|
E|--------------------|
    G            Am


G                         C
I've been noticing some changes
G            C
It's not so hard
G                    C
Took a long time to get here
G                C
We came from so far
C        C/Am      Am
And if I had it all to do again
C        C/Am        Am
I wouldn't change a thing


CHORUS:
    D C
And I   I still want you
Em                     C
Love in the altitudes, no one but me and you
D C
I   I still want you
Em                     C
Love in the altitudes, no one but me and you


At the age of temptation
You were so young then
I was looking for relation
You were looking for a friend
And your hair was long just like now
In the room we fell into


CHORUS


SOLO:
E|---------------------------------------0--|
B|---------------------------------------1--|
G|---------------------------------------0--|
D|--5-5-4-5-4-4/2-2-0-2--2/5-5-4-5-4-4/2-2--|
A|---------------------------------------3--|
E|------------------------------------------|

E|---------------------------------------------------|
B|---------------------------------------------------|
G|----------------------------------------------7-9--|
D|--5-5-4-5-4-4/2-2-0-2--2/5--5-5/7--7-7/9--9-10-----|
A|---------------------------------------------------|
E|---------------------------------------------------|


E|-----------------------------------------------------------------|
B|--13--13-12--12-12-10-10-10-8-10--13-13-15-15-17--17-17-15-13-15-|
G|-----------------------------------------------------------------|
D|-----------------------------------------------------------------|
A|-----------------------------------------------------------------|
E|-----------------------------------------------------------------|


CHORUS

I've seen the pages, the haunting lie
Someone discouraging me
They said you'll lose interest
And you'll get tired of me
But I ain't worried, you know it girl
It's been so long it seems


    D C
And I   I still want you
Em                     C
Love in the altitudes, no one but me and you
D  C
I    I still want you
Em                     C
Love in the altitudes, no one but me and you
D C              Em
I   I still want you



CHORDS:
E|--------0-----------------------|
B|---3----1----1----1----3----0---|
G|---4----0----0----0----2----0---|
D|---5----2----2----0----0----2---|
A|--------0----3----2---------2---|
E|----------------------------0---|
     G    Am   C   C/Am  D    A




Dead Moon:
Fred Cole-  Guitar, Vocals
Toody Cole-  Bass, Vocals
Andrew Loomis- Drums

"In The Altitudes" on "Stranded In The Mystery Zone" CD only (Music Maniac Records, MMCD 
042, 1991) and "Over The Edge/In The Altitudes" 7" (Tombstone Records , T-39)
Tap to rate this tab
# A B C D E F G H I J K L M N O P Q R S T U V W X Y Z