Song name
# A B C D E F G H I J K L M N O P Q R S T U V W X Y Z

Dead Moon - Cant Help Falling In Love tab

Canīt Help Falling in Love (Creatore, Peretti, Weiss - here: Dead Moon/Fred Cole version)


INTRO:

E|-----------|
B|-----------|
G|-----------|
D|-----------|
A|--3-2-0-2--|
E|-----------|

C G Am F C G

E|-----------|
B|-----------|
G|-----------|
D|-----------|
A|-----------|
E|--3-2-3-2--|

F G Am F C G C

E|-----------|
B|-----------|
G|-----------|
D|-----------|
A|--3-2-0-2--|
E|-----------|



 C    G   Am       F     C   G
Wise men say only fools rush in
    F  G     Am   F          C     G   C
But I can't help falling in love with you


  C    G  Am            F  C  G
Should I stay, would it be a sin?
    F  G     Am   F          C    G    C
But I can't help falling in love with you


CHORUS:

Em             BaddE
As a river flows

E|------------|
B|------------|
G|------------|
D|--4-4-4-4-4-|
A|--4-5-4-5-4-|
E|------------|


surely to the sea
Darling so it goes
Em                       A
Some things are meant to be


C    G   Am             F    C    G
Take my hand, take my whole life too
    F  G     Am   F          C    G    C
But I can't help falling in love with you
   F  G     Am   F          C    G    C
No I can't help falling in love with you







CHORDS:

E|-----------------------------------------|
B|--1---0---1---3---1---0---------------0--|
G|--0---0---2---2---2---0---------------2--|
D|--2---0---2---2---3---2---4-----------2--|
A|--3---2---0---0---3---2---4-5-4-5-4---0--|
E|--0---3---0---0-------0------------------|
    C   G   Am      F   Em   BaddE      A





Dead Moon:
Fred Cole-  Guitar, Vocals
Toody Cole-  Bass, Vocals
Andrew Loomis- Drums (here: Louis Samora)


Tabbed by: Deadmoony

"Canīt Help Falling in Love" on "In The Graveyard" LP (Tombstone Records, T-11, 1988)
Tap to rate this tab
# A B C D E F G H I J K L M N O P Q R S T U V W X Y Z