Song name
# A B C D E F G H I J K L M N O P Q R S T U V W X Y Z

Dead Moon - Black September chords

Highlighted       Show chord diagrams
Black September (Fred Cole)


INTRO:

B D E A  (2x)  F#


The angry moon of August hung
As I wrapped myself in you
The winds of war had cut into
As I tried to fight the truth
And in that time I lost my youth
And now I bear the scars
With black September comin' on
You know you won't get far


SOLO +  F#


Destruction lay before my eyes
In a generation beat
We seemed to be too high to see
What was dying in the street
We thought we'd change the world back then
Without becoming hard
With black September comin' on
You know you won't get far


SOLO

     B           D        E         A
We thought back then we'd be there now    (2x)


SOLO


How could I know what waits for me
How could I be so cruel
To know the best of days gone by
And the something I would lose
I watch the tides of summer fade
In memories 'neath the dark
With black September comin' on
You know you won't get far


F# A    D              F#
Oh Oh Black September You (4x)


B D E A  (2x)  F#


(End)


CHORDS INTRO:

E|-------------------|
B|--7--10--12--5--2--|
G|--8--11--13--6--3--|
D|--9--12--14--7--4--|
A|--9--12--14--7--4--|
E|--7--10--12--5--2--|

    B  D   E   A  F#



CHORDS Verse:

E|-----------------|
B|--2--2--3--4--0--|
G|--3--2--2--4--1--|
D|--4--2--0--4--2--|
A|--4--0--0--2--2--|
E|--2--0--0--2--0--|
    F# A  D  B  E


SOLO 1 & 2:
E|---------------------------------------------------|
B|--5-7-7-9-7-5-------5-7-7-9-7-5---5-7-7-9-7-5------|
G|-6------------6-6--6-------------6------------6-6--|
D|---------------------------------------------------|
A|---------------------------------------------------|
E|---------------------------------------------------|


E|----------------|
B|----------------|
G|-----4-6-4-2----|
D|-4-7---------4--|
A|----------------|
E|----------------|


SOLO 3: coming soon...




Dead Moon:
Fred Cole-  Guitar, Vocals
Toody Cole-  Bass, Vocals
Andrew Loomis- Drums

Tabbed by Deadmoony


"Black September" on "Dead Moon Night" LP (Music Maniac, 1990)
Tap to rate this tab
 
# A B C D E F G H I J K L M N O P Q R S T U V W X Y Z