Song name
# A B C D E F G H I J K L M N O P Q R S T U V W X Y Z

Dead Moon - Castaways chords

Highlighted       Show chord diagrams
Castaways (Fred Cole)


INTRO:

E|--0----[12]--|
B|--0----------|
G|--0----------|
D|--2----------|
A|--2----------|
E|--0----------|

Em  G  (4x)

Am  C  (2x)

Em  G  (2x)

E|---------------[12]--|
B|--7---8----10--------|
G|--8---9----11--------|
D|--9---10---12--------|
A|--9---10---12--------|
E|--7---8----10--------|

    B   C    D


Em  G (2x)



Em          G              Em
Castaways, gypsies of the dawn
Am
Angels out of darkness with
 C            Em
nowhere to belong
B              C            D
Bound together, we've been cast
           Em
into the storm



Castaways, children of the damned
Abandoned by the future and the
past can't understand
You've never had a change since
your journey began


SOLO:

E|----------------------------------------------------0--|
B|---------------------0--------5-3-1-0-0-0--7-8--10--0--|
G|--4----4-4-2-0-------0--2-2-2-----------0--8-9--11--0--|
D|---2-2---------4-5-2-2------------------2--9-10-12--2--|
A|---------------------2------------------2--9-10-12--2--|
E|---------------------0------------------0--7-8--10--0--|

    Em                 Em  Am             Em 
B C  D   Em


Castaways, misfits out of time
Tomorrow it won't matter and
yesterday's behind
You won't live forever, you've got
tombstones in your eyes


CHORUS:

 Em         Em
Castaways, Castaways

play:

E|--0----[12]--|
B|--0----[12]--|
G|--0----------|
D|--2----------|
A|--2----------|
E|--0----------|

    Em


+ SOLO


(END)




CHORDS:

E|-------------------------|
B|--0--0----0----1--1---1--|
G|--0--0----0----2--0---0--|
D|--2--0----0----2--2---2--|
A|--2--2----2-------3-2-3--|
E|--0--3--2-3--------------|

    Em G         Am C




Dead Moon:
Fred Cole-  Guitar, Vocals
Toody Cole-  Bass, Vocals
Andrew Loomis- Drums

Tabbed by Deadmoony

"Castaways" on "Stranded In The Mystery Zone"  LP (Tombstone, T-41, 1991)
Tap to rate this tab
# A B C D E F G H I J K L M N O P Q R S T U V W X Y Z