Song name
# A B C D E F G H I J K L M N O P Q R S T U V W X Y Z

Dead Poetic - Self Destruct And Die tab

-------------------------------------------------------------------------------
			     Self Destruct & Die - Dead Poetic
-------------------------------------------------------------------------------
Tabbed by: Landrun
Email: theoatenatoris@hotmail.com

Tabbed from ear, have included rythem throughout, enjoy and please comment / rate.
N.B. Some may prefer to play the verse by power chords on the 4th, 5th and 6th strings instead.

Tuning: Drop D tunning down half a step = Db (eb Bb Gb Db Ab Db) / C# (d# A# F# C# G# C#) 

Legend: ~ = let ring
        / = slide up
        ^ = palm mute
        x = mute note
          
 
Intro (also played throughout the verse)
eb|------------------------------------------------------------------------------|
Bb|------------------------------------------------------------------------------|
Gb|--------5~-------------5~-----------------------------------------------------|
Db|-----7~-------------7~--------------------------------------------------------|
Ab|--5~-------------5~-----------------------------------------------------------|
Db|------------------------------------------------------------------------------|


Verse 
eb|------------------------------------------------------------------------------|
Bb|------------------------------------------------------------------------------|
Gb|--5/7-7777--5/7-77777777-555555----------5/7-7777--5/7 77777777-555555-999999-|
Db|--5/7-7777--5/7-77777777-555555-333333---5/5-7777--3/5-77777777-555555-999999-| x 2
Ab|--3/5-5555--3/5-55555555-333333-333333---3/5-5555--3/5-55555555-333333-777777-|
Db|--------------------------------333333----------------------------------------|
P.M     ^^^^      ^^^^^^^^ ^^^^^^ ^^^^^^       ^^^^      ^^^^^^^^ ^^^^^^ ^^^^^^

Fill (continuation of intro)
eb|------------------------------------------------------------------------------|
Bb|------------------------------------------------------------------------------|
Gb|--------5~--------------------------------------------------------------------|
Db|-----7~-----------------------------------------------------------------------|
Ab|--5~--------------------------------------------------------------------------|
Db|------------------------------------------------------------------------------|

eb|------------------------------------------------------------------------------|
Bb|------------------------------------------------------------------------------|
Gb|--5/7-7777--5/7-77777777-555555----------5/7-7777--5/7 77777777-555555-999999-|
Db|--5/7-7777--5/7-77777777-555555-333333---5/5-7777--3/5-77777777-555555-999999-| x 2
Ab|--3/5-5555--3/5-55555555-333333-333333---3/5-5555--3/5-55555555-333333-777777-|
Db|--------------------------------333333----------------------------------------|
P.M     ^^^^      ^^^^^^^^ ^^^^^^ ^^^^^^       ^^^^      ^^^^^^^^ ^^^^^^ ^^^^^^


Pre-Chrous
eb|------------------------------------------------------------------------------|
Bb|------------------------------------------------------------------------------|
Gb|------------------------------------------------------------------------------|
Db|------------------------------------------------------------------------------|
Ab|---------------------------------------------333333333333---------------------|
Db|-000-222-333333-777777777777--000-222-333333----------------------------------|


Chrous: Rythem
eb|------------------------------------------------------------------------------|
Bb|------------------------------------------------------------------------------|
Gb|--777-101010----------555555555555--------------------------------------------|
Db|--777-101010-7--77-7--555555555555--------------------------------------------| x 3
Ab|--555-8-8-8--7--77-7--333333333333--------------------------------------------|
Db|-------------7--77-7----------------------------------------------------------|

eb|------------------------------------------------------------------------------|
Bb|------------------------------------------------------------------------------|
Gb|--777-101010------------------------------------------------------------------|
Db|--777-101010-7--77-7----------------------0~----------------------------------| x 1
Ab|--555-8-8-8--7--77-7--333-----111---------0~----------------------------------|
Db|-------------7--77-7------555-----333333--0~----------------------------------|

Chorus: Lead
eb|------------------------------------------------------------------------------|
Bb|------------------------------------------------------------------------------|
Gb|--101010-999-777-555----------------------------------------------------------|
Db|--x-x-x--xxx-xxx-xxx----------------------------------------------------------| x 4 
Ab|--8-8-8--777-555-333----------------------------------------------------------|
Db|------------------------------------------------------------------------------|


Verse 
eb|------------------------------------------------------------------------------|
Bb|------------------------------------------------------------------------------|
Gb|--5/7-7777--5/7-77777777-555555----------5/7-7777--5/7 77777777-555555-999999-|
Db|--5/7-7777--5/7-77777777-555555-333333---5/5-7777--3/5-77777777-555555-999999-| x 2
Ab|--3/5-5555--3/5-55555555-333333-333333---3/5-5555--3/5-55555555-333333-777777-|
Db|--------------------------------333333----------------------------------------|
P.M     ^^^^      ^^^^^^^^ ^^^^^^ ^^^^^^       ^^^^      ^^^^^^^^ ^^^^^^ ^^^^^^


Pre-Chrous
eb|------------------------------------------------------------------------------|
Bb|------------------------------------------------------------------------------|
Gb|------------------------------------------------------------------------------|
Db|------------------------------------------------------------------------------|
Ab|---------------------------------------------333333333333---------------------|
Db|-000-222-333333-777777777777--000-222-333333----------------------------------|


Chrous: Rythem
eb|------------------------------------------------------------------------------|
Bb|------------------------------------------------------------------------------|
Gb|--777-101010----------555555555555--------------------------------------------|
Db|--777-101010-7--77-7--555555555555--------------------------------------------| x 3
Ab|--555-8-8-8--7--77-7--333333333333--------------------------------------------|
Db|-------------7--77-7----------------------------------------------------------|

eb|------------------------------------------------------------------------------|
Bb|------------------------------------------------------------------------------|
Gb|--777-101010------------------------------------------------------------------|
Db|--777-101010-7--77-7----------------------------------------------------------| x 1
Ab|--555-8-8-8--7--77-7--333-----111---------333-----111-------------------------|
db|-------------7--77-7------555-----333333------555-----333333------------------|

Chorus: Lead
eb|------------------------------------------------------------------------------|
Bb|------------------------------------------------------------------------------|
Gb|--101010-999-777-555----------------------------------------------------------|
Db|--x-x-x--xxx-xxx-xxx----------------------------------------------------------| x 4 
Ab|--8-8-8--777-555-333----------------------------------------------------------|
Db|------------------------------------------------------------------------------|


Bridge
eb|------------------------------------------------------------------------------|
Bb|------------------------------------------------------------------------------|
Gb|----------------------------------------------------------5-5-5-5-------------|
Db|-0-0-0-0-2-2-2-2-3-3-3-3-7-7-7-7--0-0-0-0-2-2-2-2-3-3-3-3-5-5-5-5-------------| x 1
Ab|-0-0-0-0-2-2-2-2-3-3-3-3-7-7-7-7--0-0-0-0-2-2-2-2-3-3-3-3-3-3-3-3-------------|
Db|-0-0-0-0-2-2-2-2-3-3-3-3-7-7-7-7--0-0-0-0-2-2-2-2-3-3-3-3---------------------|


Final Chrous: Rythem
eb|------------------------------------------------------------------------------|
Bb|------------------------------------------------------------------------------|
Gb|---------555555555555---------------------------------------------------------|
Db|--PAUSE--555555555555---------------------------------------------------------|
Ab|---------333333333333---------------------------------------------------------|
Db|------------------------------------------------------------------------------|

eb|------------------------------------------------------------------------------|
Bb|------------------------------------------------------------------------------|
Gb|--777-101010----------555555555555--------------------------------------------|
Db|--777-101010-7--77-7--555555555555--------------------------------------------| x 3
Ab|--555-8-8-8--7--77-7--333333333333--------------------------------------------|
Db|-------------7--77-7----------------------------------------------------------|

eb|------------------------------------------------------------------------------|
Bb|------------------------------------------------------------------------------|
Gb|--777-101010------------------------------------------------------------------|
Db|--777-101010-7--77-7------------------------------------------0~--------------| x 1
Ab|--555-8-8-8--7--77-7--333-----111---------333-----111---------0~--------------|
Eb|-------------7--77-7------555-----333333------555-----333333--0~--------------|

Final Chrous: Lead
eb|------------------------------------------------------------------------------|
Bb|------------------------------------------------------------------------------|
Gb|--101010-999-777-555----------------------------------------------------------|
Db|--x-x-x--xxx-xxx-xxx----------------------------------------------------------| x 4 
Ab|--8-8-8--777-555-333----------------------------------------------------------|
Db|------------------------------------------------------------------------------|


===============================================================================
Tap to rate this tab
# A B C D E F G H I J K L M N O P Q R S T U V W X Y Z