Song name
# A B C D E F G H I J K L M N O P Q R S T U V W X Y Z

Dead Poetic - Copy Of A Copy tab

-----------------------------------------------------------------------------
			     COPY OF A COPY – Dead Poetic
-----------------------------------------------------------------------------
Tabbed by: talia.
Email: geetartalia@gmail.com

Tuning: Standard EADGBE


0:00-0:52
e|--------------------------------------------------------------------------|
B|--------------------------------------------------------------------------|
G|-----1--3-4-------1--3-4------1--3-1------1--3-0--------------------------|
D|--1-----------1-----------1------------1----------------------------------|
A|--------------------------------------------------------------------------|
E|--------------------------------------------------------------------------|

0:53-1:56
e|--------------------------------------------------------------------------|
B|--6br--4—6br—4////16—14\11--14--------------------------------------------|
G|--------------------------------------------------------------------------|
D|--------------------------------------------------------------------------|
A|--------------------------------------------------------------------------|
E|--------------------------------------------------------------------------|

The last time, slide from 14 down the fretboard.

1:57-2:16
e|--------------------------------------------------------------------------|
B|--------------------------------------------------------------------------|
G|-----1--3-4-------1--3-4------1--3-1------1--3-0--------------------------|
D|--1-----------1-----------1------------1----------------------------------|
A|--------------------------------------------------------------------------|
E|--------------------------------------------------------------------------|

e|--------------------------------------------------------------------------|
B|--------------------------------------------------14\\--------------------|
G|-----1--3-4-------1--3-4------1--3-1------1--3----------------------------|
D|--1-----------1-----------1------------1----------------------------------|
A|--------------------------------------------------------------------------|
E|--------------------------------------------------------------------------|

2:17-2:34
e|--------------------------------------------------------------------------|
B|--6br--4—6br—4////16—14\11--14--------------------------------------------|
G|--------------------------------------------------------------------------|
D|--------------------------------------------------------------------------|
A|--------------------------------------------------------------------------|
E|--------------------------------------------------------------------------|

e|--------------------------------------------------------------------------|
B|--6br—4-6br—4//-----------------------------------------------------------|
G|--------------------------------------------------------------------------|
D|--------------------------------------------------------------------------|
A|--------------------------------------------------------------------------|
E|--------------------------------------------------------------------------|


| /  slide up
| \  slide down
| h  hammer-on
| p  pull-off
| ~  vibrato
| +  harmonic
| x  Mute note
=============================================================================
Tap to rate this tab
# A B C D E F G H I J K L M N O P Q R S T U V W X Y Z