Song name
# A B C D E F G H I J K L M N O P Q R S T U V W X Y Z

Dead Poetic - A Green Desire tab

Intro/Verse
e ----------------------------------------------------------------------|
B ----------------------------------------------------------------------|
G -10-------------------------------------------------------------------|
D --9--x4--9------7-----------------------------------------------------|
A --8------7--x3--5--x4--------------------------------x6---------------|
D --9------7------5-----------------------------------------------------|

Pre-Chorus [root note in brackets, played by bass and quite possibly guitar]
e ----------------------------------------------------------------------|
B ----------------------------------------------------------------------|
G ----------------------------------------------------------------------|
D -11-approx. x10--11-approx. x10---------------listen carefully--------|
A --9--------------9---------------------------for timing---------------|
D -[9]------------[7]---------------------------------------------------|


Chorus
e ----------------------------------------------------------------------|
B ----------------------------------------------------------------------|
G --7-7---------7-7-----------------------------------------------------|
D --7-7---------7-7-----------------------------------------------------|
A --5-5---------0-0-------------x4--------------------------------------|
D --5-5---------0-0-----------------------------------------------------|

Verse
e ----------------------------------------------------------------------|
B ----------------------------------------------------------------------|
G -10-------------------------------------------------------------------|
D --9--x4--9------7-----------------------------------------------------|
A --8------7--x3--5--x4--------------------------------x6---------------|
D --9------7------5-----------------------------------------------------|

Pre-Chorus [root note in brackets, played by bass and quite possibly guitar]
e ----------------------------------------------------------------------|
B ----------------------------------------------------------------------|
G ----------------------------------------------------------------------|
D -11-approx. x10--11-approx. x10---------------listen carefully--------|
A --9--------------9---------------------------for timing---------------|
D -[9]------------[7]---------------------------------------------------|

Chorus
e ----------------------------------------------------------------------|
B ----------------------------------------------------------------------|
G --7-7---------7-7-----------------------------------------------------|
D --7-7---------7-7-----------------------------------------------------|
A --5-5---------0-0-------------x4--------------------------------------|
D --5-5---------0-0-----------------------------------------------------|


Bridge part 1 (the crunchy sounding bit) grab my hand to take me home...
e ----------------------------------------------------------------------|
B ----------------------------------------------------------------------|
G --10------------------------------------------------------------------|
D --9-------------------------------------------------------------------|
A --8----approx. x48-----in a similar pattern to the pre-chorus---------|
D --9-------------------------------------------------------------------|

Bridge part 2
e ----------------------------------------------------------------------|
B ----------------------------------------------------------------------|
G --7-7-------7-7---11-11--9-9-------------7----------------------------|
D --7-7-------7-7---11-11--9-9- and end on-7----------------------------|
A --5-5-------0-0----9--9--7-7--2nd time---5----------------------------|
D --5-5-------0-0----9--9--7-7--round------5----------------------------|

Bridge part 3 after a little wait...
e -10---9---------------------------------------------------------------|
B -10--10--10--12-------------------------------------------------------|
G -11--11--11--11-------x8----------------------------------------------|
D ----------------------------------------------------------------------|
A ----------------------------------------------------------------------|
D ----------------------------------------------------------------------|

Outro part 1
e ----------------------------------------------------------------------|
B ----------------------------------------------------------------------|
G -10-------------------------------------------------------------------|
D --9--x4--9------7-----------------------------------------------------|
A --8------7--x3--5--x4--------------------------------x4---------------|
D --9------7------5-----------------------------------------------------|

Outro part 2 [root note in brackets, played by bass and quite possibly guitar]
e ----------------------------------------------------------------------|
B ----------------------------------------------------------------------|
G ----------------------------------------------------------------------|
D -11-approx. x10--11-approx. x10-------x2----!!listen carefully--------|
A --9--------------9---------------------------for timing!!-------------|
D -[9]------------[7]---------------------------------------------------|
Tap to rate this tab
# A B C D E F G H I J K L M N O P Q R S T U V W X Y Z