Song name
# A B C D E F G H I J K L M N O P Q R S T U V W X Y Z

Dead Poetic - Tell Myself Goodbye tab

Intro and verse
------------------------------------------------------------|
------------------------------------------------------------|
-----------------------------6-6-6-6------------------------|
--10-10-10-10--10-10-10-10---6-6-6-6--- 6-6-6-6--6-6-6-6----|
--8--8--8--8----8--8--8--8---4-4-4-4----4-4-4-4--4-4-4-4----|
--8--8--8--8----8--8--8--8--------------4-4-4-4--4-4-4-4----|


chorus
-----------------------------------------------------|
-----------------------------------------------------|
-----------------------------------------------------|
-6-6-6------5-5-5---10-10-10-10---10-10-10-10--------|
-4-4-4------3-3-3---8--8--8--8----8--8--8--8---------|
-4-4-4------3-3-3---8--8--8--8----8--8--8--8---------|
 
Chorus pt. 2
--------------------------------------------------|
--------------------------------------------------|
---------------(10)--------------------(10)-------|
--6-6-6-6-----------------6-6-6-6-----------------|
--4-4-4-4------(8)--------4-4-4-4------(8)--------|
--4-4-4-4-----------------4-4-4-4-----------------|

verse
------------------------------------------------------------|
------------------------------------------------------------|
-----------------------------6-6-6-6------------------------|
--10-10-10-10--10-10-10-10---6-6-6-6--- 6-6-6-6--6-6-6-6----|
--8--8--8--8----8--8--8--8---4-4-4-4----4-4-4-4--4-4-4-4----|
--8--8--8--8----8--8--8--8--------------4-4-4-4--4-4-4-4----|


chorus
-----------------------------------------------------|
-----------------------------------------------------|
-----------------------------------------------------|
-6-6-6------5-5-5---10-10-10-10---10-10-10-10--------|
-4-4-4------3-3-3---8--8--8--8----8--8--8--8---------|
-4-4-4------3-3-3---8--8--8--8----8--8--8--8---------|
 
Chorus pt. 2
--------------------------------------------------|
--------------------------------------------------|
--6-6-6-6------(10)-------6-6-6-6------(10)-------|
--6-6-6-6-----------------6-6-6-6-----------------|
--4-4-4-4------(8)--------4-4-4-4------(8)--------|
--4-4-4-4-----------------4-4-4-4-----------------|


Bridge - with echo. Double check this when playing becasue i'm not entirely sure about this one

   *   * * *  *     *   * * *  *
-------------------------------------------------|
-------------------------------------------------|
---10---------------10---------------------------|
-------9-9-10-10--------9-9-10-10----------------|
-------------------------------------------------|
-------------------------------------------------|


Outro
-----------------------------------------------------|
-----------------------------------------------------|
-----------------------------------------------------|
-6-6-6----5-5-5---10-10-10-10---10-10-10-10----------|
-4-4-4----3-3-3---8--8--8--8----8--8--8--8-----------|
-4-4-4----3-3-3---8--8--8--8----8--8--8--8-----------|

for "the rain falls" bit, check out the slight early choking 
of the 10-8-8 chord
Tap to rate this tab
# A B C D E F G H I J K L M N O P Q R S T U V W X Y Z