Song name
# A B C D E F G H I J K L M N O P Q R S T U V W X Y Z

Dead Poetic - A Green Desire tab

I did this before, but i felt some bits were incorrect or not as clearly laid out 
as i would have wanted.

Intro/Verse
e ----------------------------------------------------------------------|
B ----------------------------------------------------------------------|
G -10-------------------------------------------------------------------|
D --9--x4--9------7-----------------------------------------------------|
A --8------7--x3--5--x4--------------------------------x6---------------|
D --9------7------5-----------------------------------------------------|

Pre-Chorus 
e ----------------------------------------------------------------------|
B -14-------------------------------------------------------------------|
G -11-------------------------------------------------------------------|
D -12-approx. x20-------------------------------listen carefully--------|
A ---------------------------------------------for timing---------------|
D ----------------------------------------------------------------------|



Chorus
e ----------------------------------------------------------------------|
B ----------------------------------------------------------------------|
G --7-7---------7-7-----------------------------------------------------|
D --7-7---------7-7-----------------------------------------------------|
A --5-5---------0-0-------------x4--------------------------------------|
D --5-5---------0-0-----------------------------------------------------|

Verse
e ----------------------------------------------------------------------|
B ----------------------------------------------------------------------|
G -10-------------------------------------------------------------------|
D --9--x4--9------7-----------------------------------------------------|
A --8------7--x3--5--x4--------------------------------x6---------------|
D --9------7------5-----------------------------------------------------|

cChorus
e ----------------------------------------------------------------------|
B ----------------------------------------------------------------------|
G --7-7---------7-7-----------------------------------------------------|
D --7-7---------7-7-----------------------------------------------------|
A --5-5---------0-0-------------x4--------------------------------------|
D --5-5---------0-0-----------------------------------------------------|


Bridge part 1 (the crunchy sounding bit) grab my hand to take me home...
e ----------------------------------------------------------------------|
B ----------------------------------------------------------------------|
G --10------------------------------------------------------------------|
D --9-------------------------------------------------------------------|
A --8----approx. x48-----in a similar pattern to the pre-chorus---------|
D --9-------------------------------------------------------------------|

Bridge part 2
e ----------------------------------------------------------------------|
B ----------------------------------------------------------------------|
G --7-7-------7-7---11-11--9-9------------------------------------------|
D --7-7-------7-7---11-11--9-9- and end on-0----------------------------|
A --5-5-------0-0----9--9--7-7--2nd time---0----------------------------|
D --5-5-------0-0----9--9--7-7--round------0----------------------------|

Bridge part 3 after a little wait... [over dubbed guitar playing a B power chord on every stroke]
e -10---9-------------------------10-----9------------------------------|
B -10--10--10--12-------------------10----10----10-12-------------------|
G -11--11--11--11-------x4------------11----11--11-11-------------------|
D ----------------------------------------------------------------------|
A ----------------------------------------------------------------------|
D ----------------------------------------------------------------------|

Outro part 1
e ----------------------------------------------------------------------|
B ----------------------------------------------------------------------|
G -10-------------------------------------------------------------------|
D --9--x4--9------7-----------------------------------------------------|
A --8------7--x3--5--x4--------------------------------x4---------------|
D --9------7------5-----------------------------------------------------|

Outro part 
e ----------------------------------------------------------------------|
B -14-------------------------------------------------------------------|
G -11-------------------------------------------------------------------|
D -12-approx. x20-------------------------------listen carefully--------|
A ---------------------------------------------for timing---------------|
D ----------------------------------------------------------------------|

Tap to rate this tab
# A B C D E F G H I J K L M N O P Q R S T U V W X Y Z