Song name
# A B C D E F G H I J K L M N O P Q R S T U V W X Y Z

Dead Poetic - Dream Club Murders tab

-------------------------------------------------------------------------------
			     The Dream Club Murders - Dead Poetic
-------------------------------------------------------------------------------
Tabbed by:Grady B.
Email:epicgady@yahoo.com

Tuning:Drop D (DADGBe)

intro
|-------------------------------------------------------------|
|-------------------------------------------------------------|
|-------------------------------------------------------------|play
|-6-6-6---6-6-6---6-6-6---6-6-6--/----11-------10\6-----------|2x
|-4-4-4---4-4-4---4-4-4---4-4-4--/8-8-8-------(8)\6-----------|
|-4-4-4---4-4-4---4-4-4---4-4-4--/8-8-8-------(8)\6-----------|



|-----------------------------------------------------------------|
|-----------------------------------------------------------------|
|---------------------------------6-6-6---6-6-6---6-6-6---6-6-6---|
|-6-6-6---6-6-6---6-6-6---6-6-6---4-4-4---4-4-4---4-4-4---4-4-4---|
|-4-4-4---4-4-4---4-4-4---4-4-4---4-4-4---4-4-4---4-4-4---4-4-4---|
|-4-4-4---4-4-4---4-4-4---4-4-4---4-4-4---4-4-4---4-4-4---4-4-4---|


verse
|--------------------------------------------------------------|
|--------------------------------------------------------------|
|--------------------------------------------------------------|
|-11-11-11-11-11-11-11-11-11-11-11-11-11-11-11-11-11-11-10-10--|
|-8--8--8--8--8--8--8--8--8--8--8--8--8--8--8--8--8--8--8--8---|
|--------------------------------------------------------------|


          stop here third time |
|------------------------------|----------------------------------|
|------------------------------|----------------------------------|
|------------------------------|--8-8-8-8-8-8-8-8-8-8-8-8-8-8-8-8-|
|-6-6-6-6-6-6-6-6-6-6-6-6-6-6-6|6-6-6-6-6-6-6-6-6-6-6-6-6-6-6-6-6-|
|-6-6-6-6-6-6-6-6-6-6-6-6-6-6-6|6-6-6-6-6-6-6-6-6-6-6-6-6-6-6-6-6-|
|------------------------------|----------------------------------|

                                                play verse 3x
|--------------------------------|
|--------------------------------|
|6-6-6-6-6-6-6-6-6-6-6-6-6-6-6-6-|
|6-6-6-6-6-6-6-6-6-6-6-6-6-6-6-6-|
|4-4-4-4-4-4-4-4-4-4-4-4-4-4-4-4-|
|--------------------------------|


or play this the third time
|-------------------------------------|
|-------------------------------------|
|-------------------------------------|
|-11----------------6-----------------|
|-8-----------------6-----------------|
|-8-----------------6-----------------|



|-----------------------------------------------------------------|
|---------------------------------6-6-6---6-6-6---6-6-6---6-6-6---|
|-8-8-8---8-8-8---8-8-8---8-8-8---6-6-6---6-6-6---6-6-6---6-6-6---|
|-6-6-6---6-6-6---6-6-6---6-6-6---4-4-4---4-4-4---4-4-4---4-4-4---|
|-6-6-6---6-6-6---6-6-6---6-6-6---4-4-4---4-4-4---4-4-4---4-4-4---|
|-----------------------------------------------------------------|



|--------------------------|
|--------------------------|
|-x-x-11--11--x-x--11--11--|
|-x-x-8---8---x-x--8---8---|
|-x-x---------x-x----------|
|--------------------------|


chorus
|----------------------------------------------------------------|
|----------------------------------------------------------------|
|----------------------------------------x-x-11--11--x-x-11--11--|
|-4------------6------------4------------x-x-8---8---x-x-8---8---|
|-4------------6------------4------------x-x---------x-x---------|
|-4------------6------------4------------------------------------|


                                          interlude part (play 2x)
|---------------------------------|---------------------------------------|
|---------------------------------|--------------6----------------(**)----|
|---------------------------------|------5h6--5-------5h6--5------(*)-----|
|-4------------6------------4-----|---------------------------6--------6--|
|-4------------6------------4-----|---------------------------------------|
|-4------------6------------4-----|---------------------------------------|
*first time- "-10-"
**second time- "-9b10r9-"

|--------|
|--------|
|--------|
|--------|
|-6b8----|
|--------|


bridge
|-x-x-x-x-x-x---------------------------------------|
|-x-x-x-x-x-x---------------------------------------|
|-x-x-x-x-x-x---------------------------------------|
|-x-x-x-x-x-x-11----10----13-----11-----11----10----|
|-x-x-x-x-x-x-8-16x-8-16x-11-16x-11-16x-8-16x-8-16x-|
|-x-x-x-x-x-x-8-----8-----11-----11-----8-----8-----|



|---------------------------------------------|
|---------------------------------------------|
|---------------------------------------------|
|-13-13-13---13-13-13---13-13-13---13-13-13---|
|-11-11-11---11-11-11---11-11-11---11-11-11---|
|-11-11-11---11-11-11---11-11-11---11-11-11---|



|---------------------------------------------|
|---------------------------------------------|
|---------------------------------------------|
|-11-11-11---11-11-11---11-11-11---11-11-11---|
|-11-11-11---11-11-11---11-11-11---11-11-11---|
|-11-11-11---11-11-11---11-11-11---11-11-11---|



|--------------------------|
|--------------------------|
|-x-x-11--11--x-x--11--11--|
|-x-x-8---8---x-x--8---8---|
|-x-x---------x-x----------|
|--------------------------|


chorus
|----------------------------------------------------------------|
|----------------------------------------------------------------|
|----------------------------------------x-x-11--11--x-x-11--11--|
|-4------------6------------4------------x-x-8---8---x-x-8---8---|
|-4------------6------------4------------x-x---------x-x---------|
|-4------------6------------4------------------------------------|



|----------------------------------------------------------------|
|----------------------------------------------------------------|
|----------------------------------------x-x-11--11--x-x-11--11--|
|-4------------6------------4------------x-x-8---8---x-x-8---8---|
|-4------------6------------4------------x-x---------x-x---------|
|-4------------6------------4------------------------------------|



|-------------------------------------------------------|
|-------------------------------------------------------|
|-------------------------------------------------------|
|-11----------------------------------------------------|
|-------------------8h9---9--8-----6--6--------4--------|
|-------------------------------------------------------|



|--------------------------|
|--------------------------|
|-x-x-11--11--x-x--11--11--|
|-x-x-8---8---x-x--8---8---|
|-x-x---------x-x----------|
|--------------------------|



|-------------------------------------------------------|
|-------------------------------------------------------|
|-------------------------------------------------------|
|-11----------------------------------------------------|
|-------------------8h9---9--8-----6--6--------4--------|
|-------------------------------------------------------|

bridge 2
|-----------------------------------------------|
|-----------------------------------------------|
|-x-x-x-x-10-------\6--------8-------/11--------|
|-x-x-x-x-x--------\x--------x-------/x---------|
|-x-x-x-x-8--------\4--------6-------/9---------|
|-x-x-x-x---------------------------------------|



|--------------------|
|--------------------|
|-10-------\6--------|
|-x--------\x--------|
|-8--------\4--------|
|--------------------|


ending
|--------------------------------------------------------------------|
|--------------------------------------------------------------------|
|--------------------------------------------------------------------|
|-11---11---11-11-11-11---11-11---11-11-11-10-10---10---10-10-10-10--|
|-8----8----8--8--8--8----8--8----8--8--8--8--8----8----8--8--8--8---|
|--------------------------------------------------------------------|



|--------------------------------------------------------------------|
|--------------------------------------------------------------------|
|--------------------------------------------------------------------|
|-10-10---10-10-10-10-13---13---13-13-13-13---13-13---13-13-13-13-11-|
|-8--8----8--8--8--8--11---11---11-11-11-11---11-11---11-11-11-11-11-|
|--------------------------------------------------------------------|



|----------------------------------------|
|----------------------------------------|
|----------------------------------------|
|-11---11-11-11-11---11-11---11-11-11-11-|
|-11---11-11-11-11---11-11---11-11-11-11-|
|----------------------------------------|

play ending 6x


************************************

| /   slide up
| \   slide down
| h   hammer-on
| p   pull-off
| ~   vibrato
| +   harmonic
| x   Mute note
| b   Bend
| pb  Pre-bend
| br  Bend release
| pbr Pre-bend release
| brb Bend release bend
| (#) ghost note (still ringing)

************************************
Tap to rate this tab
 
# A B C D E F G H I J K L M N O P Q R S T U V W X Y Z