Song name
# A B C D E F G H I J K L M N O P Q R S T U V W X Y Z

Dead Poetic - In Coma tab

Dead Poetic
In Coma
Tabbed by U B the band
Tuning D A D G B E

Legend:
pm-palm muted
( )-optional
brb-bend return bend
x-scratch

Okay this may be long but it's all here. (it's one of my favorite songs)

Intro guitar 1: 00:00
E|-----------------------------------------|
B|-----------------------------------------|
G|-----------------------------------------|
D|--666666-999999-9-9-9-9-9-9-9-9-9-9-9-9--|
A|--666666-666666-7-7-7-7-7-7-7-7-7-7-7-7--|
D|--666666-666666--------------------------|x2
    pmpmpm pmpmpm pmpmpmpmpmpmpmpmpmpmpmpm

Intro guitar 2: 00:00
E|------------------------------------------|
B|------------------------------------------|
G|----------------8(8)(8)-8(8)(8)(8)(8)(8)--|
D|--666666-999999-9(9)(9)-9(9)(9)(9)(9)(9)--|
A|--666666-666666-7(7)(7)-7(7)(7)(7)(7)(7)--|
D|--666666-666666---------------------------|x2
    pmpmpm pmpmpm

Verse 1 guitar 1: 00:09
E|--------------------------------|
B|--------------------------------|
G|--------------------------------|
D|--1---------4------1---------4--|
A|-------2----------------2-------|
D|--------------------------------|x2

Verse 1 guitar 2 (strum): 00:09
E|--------------------------------|
B|---7----------------------------|
G|---8----------------------------|
D|--(9)---------------------------|
A|--------------------------------|
D|--------------------------------|

guitar 1: 00:28
E|-----------------------------------------|
B|-----------------------------------------|
G|-----------------------------------------|
D|--666666-999999-9-9-9-9-9-9-9-9-9-9-9-9--|
A|--666666-666666-7-7-7-7-7-7-7-7-7-7-7-7--|
D|--666666-666666--------------------------|x3
    pmpmpm pmpmpm pmpmpmpmpmpmpmpmpmpmpmpm

guitar 1 continued: 00:43
E|-----------------|
B|-----------------|
G|-----------------|
D|--666666-999999--|
A|--666666-666666--|
D|--666666-666666--|
    pmpmpm pmpmpm 

guitar 2 continued: 00:28
E|------------------------------------------|
B|------------------------------------------|
G|----------------8(8)(8)-8(8)(8)(8)(8)(8)--|
D|--666666-999999-9(9)(9)-9(9)(9)(9)(9)(9)--|
A|--666666-666666-7(7)(7)-7(7)(7)(7)(7)(7)--|
D|--666666-666666---------------------------|x4
    pmpmpm pmpmpm

guitar 3 fill-in: 00:28
E|--4---------------------4----------------|
B|---------4------7--------------4---------|
G|--------------------------------------6--|
D|-----------------------------------------|
A|-----------------------------------------|
D|-----------------------------------------|x2

Chorus guitar 1: 00:47
E|----------------------------------|
B|----------------------------------|
G|----------------------------------|
D|--6-6666--4-4444--2-2222--2-2222--|
A|--6-6666--4-4444--2-2222--2-2222--|
D|--6-6666--4-4444--2-2222--2-2222--|x4

Chorus guitar 2: 00:47
E|--16--------------------------------------------------------------|
B|-----14-16-14-14-14-16-14-16-14-14-16-14-16-14-14-16-14-16-14-14--|
G|------------------------------------------------------------------|
D|------------------------------------------------------------------|
A|------------------------------------------------------------------|
D|------------------------------------------------------------------|

E|--16---------------------------------------------------|
B|-----14-16-14-14-14-16-14-16-14-14-16-14-16----16--16--|
G|-------------------------------------------------------|
D|-------------------------------------------------------|
A|-------------------------------------------------------|
D|-------------------------------------------------------|

Link from chorus to verse 2 guitar 1: 01:06
E|------------------------------------------------|
B|------------------------------------------------|
G|------------------------------------------------|
D|--66---------66---------66---------66-----------|
A|--66---------66---------66---------66-----------|
D|--66---------66---------66---------66-----------|
    pm         pm         pm         pm

Link from chorus to verse 2 guitar 2: 01:06
E|------------------------------------------------|
B|------------------------------------------------|
G|------------------------------------------------|
D|-----9-6-8brb---9-6-8brb---9-6-8brb---9-6-8brb--|
A|------------------------------------------------|
D|------------------------------------------------|

Verse 2 guitar 1: 01:11
E|--------------------------------|
B|--------------------------------|
G|--------------------------------|
D|--1---------4------1---------4--|
A|-------2----------------2-------|
D|--------------------------------|x2

Verse 2 guitar 2 (strum): 01:11
E|--------------------------------|
B|---7----------------------------|
G|---8----------------------------|
D|--(9)---------------------------|
A|--------------------------------|
D|--------------------------------|

guitar 1: 01:30
E|-----------------------------------------|
B|-----------------------------------------|
G|-----------------------------------------|
D|--666666-999999-9-9-9-9-9-9-9-9-9-9-9-9--|
A|--666666-666666-7-7-7-7-7-7-7-7-7-7-7-7--|
D|--666666-666666--------------------------|x3
    pmpmpm pmpmpm pmpmpmpmpmpmpmpmpmpmpmpm

guitar 1 continued: 01:44
E|-----------------|
B|-----------------|
G|-----------------|
D|--666666-999999--|
A|--666666-666666--|
D|--666666-666666--|
    pmpmpm pmpmpm 

guitar 2 continued: 01:30
E|------------------------------------------|
B|------------------------------------------|
G|----------------8(8)(8)-8(8)(8)(8)(8)(8)--|
D|--666666-999999-9(9)(9)-9(9)(9)(9)(9)(9)--|
A|--666666-666666-7(7)(7)-7(7)(7)(7)(7)(7)--|
D|--666666-666666---------------------------|x4
    pmpmpm pmpmpm

guitar 3 fill-in: 01:30
E|--4---------------------4----------------|
B|---------4------7--------------4---------|
G|--------------------------------------6--|
D|-----------------------------------------|
A|-----------------------------------------|
D|-----------------------------------------|x2

Chorus guitar 1: 01:49
E|----------------------------------|
B|----------------------------------|
G|----------------------------------|
D|--6-6666--4-4444--2-2222--2-2222--|
A|--6-6666--4-4444--2-2222--2-2222--|
D|--6-6666--4-4444--2-2222--2-2222--|x8

Chorus guitar 2: 01:49 play two times
E|--16--------------------------------------------------------------|
B|-----14-16-14-14-14-16-14-16-14-14-16-14-16-14-14-16-14-16-14-14--|
G|------------------------------------------------------------------|
D|------------------------------------------------------------------|
A|------------------------------------------------------------------|
D|------------------------------------------------------------------|

E|--16---------------------------------------------------|
B|-----14-16-14-14-14-16-14-16-14-14-16-14-16----16--16--|
G|-------------------------------------------------------|
D|-------------------------------------------------------|
A|-------------------------------------------------------|
D|-------------------------------------------------------|

Link from chorus to Bridge guitar 1: 02:27
E|------------------------------------------------|
B|------------------------------------------------|
G|------------------------------------------------|
D|--66---------66---------66---------66-----------|
A|--66---------66---------66---------66-----------|
D|--66---------66---------66---------66-----------|x2
    pm         pm         pm         pm
       
Link from chorus to Bridge guitar 2: 02:27
E|------------------------------------------------|
B|------------------------------------------------|
G|------------------------------------------------|
D|-----9-6-8brb---9-6-8brb---9-6-8brb---9-6-8brb--|
A|------------------------------------------------|
D|------------------------------------------------|

E|----------------------------------------|
B|----------------------------------------|
G|----------------------------------------|
D|-----9-6-8brb---9-6-8brb---9-6-8brb-----|
A|----------------------------------------|
D|----------------------------------------|

Bridge guitar 1: 02:37/02:48/02:59                 -|
E|------------------------------------------------| |
B|------------------------------------------------| |
G|------------------------------------------------| |
D|--66---------66---------66---------66-----------| |
A|--66---------66---------66---------66-----------| |
D|--66---------66---------66---------66-----------| |
                                                    |
Bridge Guitar 2: 02:37/02:48/02:59                  |
E|------------------------------------------------| |
B|------------------------------------------------| |
G|------------------------------------------------| |
D|-----9-9-8brb---9-9-8brb---9-9-8brb---9-9-8brb--| |
A|------------------------------------------------| |
D|------------------------------------------------| |
                                                    |
Bridge guitar 1: 02:42/02:53/03:04                  |
E|-----------------------------------|              |
B|-----------------------------------|              |
G|--------------------888---6666666--|              |
D|--2-----2---------2-xxx-2-xxxxxxx--|              |
A|--2-----2---------2-666-2-4444444--|              |
D|--2-----2---------2-----2----------|              |
                                                    |
Bridge Guitar 2: 02:42/02:53/03:04                  |
E|-----------------------------------|              |
B|-----------------------------------|              |
G|-----------------------------------|              |
D|----444---4444444---444---4444444--|              |
A|-----------------------------------|              |
D|-----------------------------------|              |
                                                   -|Play 3 times
guitar 2 03:10
E|--------------------|
B|--------------------|
G|--8(8)(8)(8)(8)(8)--|
D|--9(9)(9)(9)(9)(9)--|
A|--7(7)(7)(7)(7)(7)--|
D|--------------------|

Chorus guitar 1: 03:13
E|----------------------------------|
B|----------------------------------|
G|----------------------------------|
D|--6-6666--4-4444--2-2222--2-2222--|
A|--6-6666--4-4444--2-2222--2-2222--|
D|--6-6666--4-4444--2-2222--2-2222--|x8

Chorus guitar 2: 03:13 play two times
E|--16--------------------------------------------------------------|
B|-----14-16-14-14-14-16-14-16-14-14-16-14-16-14-14-16-14-16-14-14--|
G|------------------------------------------------------------------|
D|------------------------------------------------------------------|
A|------------------------------------------------------------------|
D|------------------------------------------------------------------|

E|--16---------------------------------------------------|
B|-----14-16-14-14-14-16-14-16-14-14-16-14-16----16--16--|
G|-------------------------------------------------------|
D|-------------------------------------------------------|
A|-------------------------------------------------------|
D|-------------------------------------------------------|

Outro guitar 1: 03:51
E|------------------------------------------------|
B|------------------------------------------------|
G|------------------------------------------------|
D|--66---------66---------66---------66-----------|
A|--66---------66---------66---------66-----------|
D|--66---------66---------66---------66-----------|
    pm         pm         pm         pm
       
Outro guitar 2: 03:51
E|------------------------------------------------|
B|------------------------------------------------|
G|------------------------------------------------|
D|-----9-6-8brb---9-6-8brb---9-6-8brb---9-6-8brb--|
A|------------------------------------------------|
D|------------------------------------------------|

Finished!
Tap to rate this tab
 
# A B C D E F G H I J K L M N O P Q R S T U V W X Y Z