Dead Prez - Mind Sex tab

e|--15------12----|-10-------------|-------------|
G|-----15------12-|----10---12-----|----------12-|
D|----------------|-------------12-|---14--------|
A|----------------|----------------|-----14------|
E|----------------|----------------|-------------|

e|--15------12----|----10----------|-15--14---12-|
G|-----15------12-|-------10---12--|-------------|
D|----------------|----------------|-------------|
A|----------------|----------------|-------------|
E|----------------|----------------|-------------|

e|--15------12----|---10-----------|-------------|
G|-----15------12-|------10---12---|-------------|
D|----------------|----------------|-12--11---9--|
A|----------------|----------------|-------------|
E|----------------|----------------|-------------|
Tap to rate this tab
 
# A B C D E F G H I J K L M N O P Q R S T U V W X Y Z