Song name
# A B C D E F G H I J K L M N O P Q R S T U V W X Y Z

Dead Prez - Mind Sex tab

------------------------------------------------------------------------------------------
-------------------------"Mind Sex" - dead prez-----------------------------------------
------------------------------------------------------------------------------------------

Tabbed by: Wendy V 
Email: soundslikefraud@verizon.net

Tuning: standard

e|--15--12---|-----------|-----------|---------|--15--12----|---------|---------|-----|
B|----15--12-|----15--12-|-----------|---12~ --|----15--12--|--15--12-|---------|-----|
G|-----------|------14---|--12-14----|---------|------------|----14---|--12-11--|-12~ |
D|-----------|-----------|--------14-|---------|------------|---------|------14-|-----|
A|-----------|-----------|-----------|---------|------------|---------|---------|-----|
E|-----------|-----------|-----------|---------|------------|---------|---------|-----|


| ~  vibrato


We need more dead prez. 

http://deadprez.com/

Tap to rate this tab
# A B C D E F G H I J K L M N O P Q R S T U V W X Y Z