Song name
# A B C D E F G H I J K L M N O P Q R S T U V W X Y Z

Dead Rejects - Breathe tab

-------------------------------------------------------------------------------
                             Dead Rejects - Breathe
-------------------------------------------------------------------------------
Tabbed by: s4t2p0
E-mail:

Tuning: Standard

e|-33-3-3-3-33-3-44-4-3-3-3-3-44-4-66-6-------------------------------------|
B|-44-4-4-4-33-3-44-4-4-4-4-4-44-4-66-6-------------------------------------|
G|-33-3-3-3-44-4-55-5-5-5-5-5-55-5-77-7-------------------------------------|
D|----------55-5-66-6---------66-6-88-8-------------------------------------|
A|--------------------------------------------------------------------------|
E|--------------------------------------------------------------------------|


************************************

| /   slide up
| \   slide down
| h   hammer-on
| p   pull-off
| ~   vibrato
| +   harmonic
| x   Mute note
| b   Bend
| pb  Pre-bend
| br  Bend release
| pbr Pre-bend release
| brb Bend release bend

************************************
Tap to rate this tab
 
# A B C D E F G H I J K L M N O P Q R S T U V W X Y Z