Song name
# A B C D E F G H I J K L M N O P Q R S T U V W X Y Z

Dead Sara - Weatherman tab

-------------------------------------------------------------------------------
                             Weatherman - Dead Sara
-------------------------------------------------------------------------------
Tabbed by: scorpsfan830
E-mail: jacobselsor@gmail.com

Tuning: Standard (EADGBe)

Ok, I'm gonna start off by saying that this song is freakin' awesome! Second, the 
chick who sings this song is an awesome frontwoman! So I hope you have fun 
learning this because it's a fun song to play. GOOD LUCK AND HAVE FUN!!!

Intro
 Play this a few times until she yells
 C'MON!!                                          Then
e|-------------------------------------|---------------------------------------------------------|
B|-------------------------------------|---------------------------------------------------------|
G|-------------------------------------|------------------------------------------7~/17-17~------|
D|-5-5-5-3-5-5-5-5-5-3-5-5-5-5-5-3-5---|-5-5-5-3-5-5-5-5-3-5-5-5-5-3-5-5-5-5-3-5--x~/x--x-~------|
A|-5-5-------5-5-5-------5-5-5---------|-5-5-------5-5-------5-5-------5-5--------5~/15-15~------|
E|-3-3-------3-3-3-------3-3-3---------|-3-3-------3-3-------3-3-------3-3-----------------------|
Repeat the second bar
as many times as
needed.


Verse
 Listen to the song for time, you are basically just playing around with the G power chord.
 After every line play a couple strums of the G power chord.
e|-----------------|--------------------------------|
B|-----------------|--------------------------------|
G|-----------------|--------------------------------|
D|-5~~~~--5-5--5~~-|-5-5-5-5-5-5-5-5-5------5-5-5-5-|
A|-5~~~~--5-5--5~~-|-5-5-5-5-5-5-5-5-5-etc.-5-5-5-5-|
E|-3~~~~--3-3--3~~-|-3-3-3-3-3-3-3-3-3------3-3-3-3-|
                     . . . . . . . . .    repeat
                    Well hey kid...

Play the intro one more time

then
e|--------------------------------------------|
B|--------------------------------------------|
G|--------------------------------------------|
D|-10-10-10-10-10-10-10-10-3-3-3-3-8-8-8-8----| Repeat as many times as necessary.
A|-10-10-10-10-10-10-10-10-3-3-3-3-8-8-8-8----|
E|-8--8--8--8--8--8--8--8--1-1-1-1-6-6-6-6----|


That's pretty much it, please leave any NICE comments and/or corrections if you 
have any. THANK YOU AND ROCK ON!!!!

************************************

| /   slide up
| \   slide down
| h   hammer-on
| p   pull-off
| ~   vibrato
| +   harmonic
| x   Mute note
| b   Bend
| pb  Pre-bend
| br  Bend release
| pbr Pre-bend release
| brb Bend release bend

************************************
Tap to rate this tab
 
# A B C D E F G H I J K L M N O P Q R S T U V W X Y Z