Song name
# A B C D E F G H I J K L M N O P Q R S T U V W X Y Z

Dead Sea Apple - Dear God tab

Dead Sea Apple - Dear God

http://www.deadseaapple.is/pics/main.html

I'm Only 14 an this is my first tab so dont judge me so hard
this is only the first part but I think this is pretty correct


Dear god
Standard tuning
|---------------------------||---------------------------|\
|--------2-----------2------||------2----------5--2------| \
|------4---4--------4-------||----4---4------------------|  \
|----4------------4---------||--4------------4-----------|   \ 
|---------------------------||---------------------------|    \	
|---------------------------||---------------------------|     \
							        |   x2
|---------------------------||-----------------5---------|     /
|--------2-----------2------||------2-------------2------|    /
|------4---4--------4-------||----4---4------------------|   /
|----4------------4---------||--4------------4-----------|  /
|---------------------------||---------------------------| /
|---------------------------||---------------------------
Tap to rate this tab
 
# A B C D E F G H I J K L M N O P Q R S T U V W X Y Z