Song name
# A B C D E F G H I J K L M N O P Q R S T U V W X Y Z

Dead Season - The One tab

                               Dead Season
                                 THE ONE!
Intro

-----------------------------------|
-----------------------------------|
-----------------------------------|
------9-------9-------9-------9----|
----9---9---9---9---9---9---9------|
--7-------7-------7-------7--------|

Secont Part                              Go Back And Fourth
-----------------------------------|       Between Sections
-----------------------------------|
-----------------------------------|
----7-------7-------7-------7------|
------7---7---7---7---7---7---7----|
--5-----5-------5-------5-------5--|
Tap to rate this tab
 
# A B C D E F G H I J K L M N O P Q R S T U V W X Y Z