Song name
# A B C D E F G H I J K L M N O P Q R S T U V W X Y Z

Dead Shades - Gimme My Gun tab

-----------------------------------------------------------------------------
			     Gimme My Gun - Dead Shades
-----------------------------------------------------------------------------

www.myspace.com/deadshades

Tabbed by: Brisnix

Tuning: All strings are tuned down one whole step. For a regular tuned guitar start riff 
3rd fret.

Dead Shades are a new Aussie indie band makin waves.

Intro and Verse Riff

e|---------------------------------------------------------------------------|
B|-----------------------------------------------------------7-7-7-5---0-0-0-|
G|-----------------------------------------------------------7-7-7-5---0-0-0-|
D|-----------5-5-----------------5-5-----------------5-5-----7-7-7-5---0-0-0-|
A|------7-7--------7-7------7-7-------7-7-------7-7------7-7-----------------|
E|--5-5-----------------5-5----------------5-5-------------------------------|


Chorus Riff

X 4  The (7) is played on the 4th time. 			  (*Before you die...)

e|---------------------------------------------------------------------------|
B|---------------------------------------------------------------------------|
G|---------------------------------------------------------------------------|
D|---------------------------------------------------------------------------|
A|-----------------------------3---5-----3----5---5--------(*7)--------------|
E|--3---5-------3------5--5--------------------------------------------------|

There are some slight changes to the two riffs here and there but this is the basic 
and the only two sections in the entire song.
Tap to rate this tab
# A B C D E F G H I J K L M N O P Q R S T U V W X Y Z