Guitaretab - guitar tabs
Song name
# A B C D E F G H I J K L M N O P Q R S T U V W X Y Z

Dead To Fall - Balance Theory tab

The Balance Theory
AUTOR: Dead To Fall
ALBUM: Everything I Touch Falls To pieces
Tabbed by: Emmanuel Michel Soto
E------------------------------------------------------------------
B------------------------------------------------------------------
G------------------------------------------------------------------   X 2
D--2--2-3-2---3--3-5-3---5--5-5--2--2-3-2--0--0-2-0----------------
A--3----------5----------7-------3---------0------------4----------
E-------------------------------------------------------5----------

E-----------------------------------------------------------------
B-----------------------------------------------------------------
G-----------------------------------------------------------------  X  2
D--------0-2---3----5-3-5--2----3-2-3--0--3-2--0--0---------------
A--4--4--------5----7-5-7--3----5-3-5--0--5-3-----0--4---4--------
E--5------------------------------------------------------5-------

E----------------------------------------------------------------------------------------------
B----------------------------------------------------------------------------------------------
G----------------------------------------------------------------------------------------------
D------0-2---3--3--5--7---5--5-7-8-7--5--7---5---5--3--5--2--3--2--3--0--3--2--0---0-----------
A--4-4-------5------------7--------8--7--8---7---7--5--7--3--5--3--5--0--5--3------0---4---4---
E--5-----------------------------------------------------------------------------------5-------

E-----------------2-----
B-----------------------
G-----------------2-----
D-------2---0-----------
A---4---4---0--2--------
E---5----------3--------

E--0-2-3-5-7-5-7-----5  2----0--0----0-2-3-2--3-2 /3 2 -- p0--5  p0----0--0----------
B---------------0-----0--------0--3-----------------------------0--0-----0----3--2-----
G----------------0-----0--------0--0-----------------------------0--0-----0----0--0----
D--------------------------------------------------------------------------------------
A--------------------------------------------------------------------------------------
E--------------------------------------------------------------------------------------
[ Tab from: http://www.guitaretab.com/d/dead-to-fall/71846.html ]
E--0-2-3--5--7-5--7--5  2 p0---0---0-2-3-2--3-2 /3  2  0--p0--5  p0--0--0--0--2--3--2--2--3--2--0--3--2--0--------
B------------------0--0------0---3-----------------------------0--0-----0--3--2--0--0--0--0--0--0--0--0--0--0--0---
G-------------------0--0------0---0-----------------------------0--0-----0--0--0--0--2--2--2--2--2--2--0--0--0--0--
D------------------------------------------------------------------------------------------------------------------
A------------------------------------------------------------------------------------------------------------------
E------------------------------------------------------------------------------------------------------------------
E--0-2-3--5--7-5--7--7--7--8--8--8--5--5--5--7--7--7--3--3--3--5--5--5--2--2--2--3--3--3---------------------------
B------------------0--0--0--0--0--0--0--0--0--0--0--0--0--0--0--0--0--0--0--0--0--0--0--0--------------------------
G-------------------0--0--0--0--0--0--0--0--0--0--0--0--0--0--0--0--0--0--0--0--0--0--0--0-------------------------
D------------------------------------------------------------------------------------------------------------------
A------------------------------------------------------------------------------------------------------------------
E------------------------------------------------------------------------------------------------------------------

E--7--7--7--8--8--8--5--5--5--7--7--7--3--3--3--5--5--5--2--2--2--3--3--3---
B---0--0--0--0--0--0--0--0--0--0--0--0--0--0--0--0--0--0--0--0--0--0--0--0--
G----0--0--0--0--0--0--0--0--0--0--0--0--0--0--0--0--0--0--0--0--0--0--0--0-
D---------------------------------------------------------------------------
A---------------------------------------------------------------------------
E---------------------------------------------------------------------------
Continue↓
E---2---2--2--2--3--2--0--3--2--0----------
B----0---0--0--0--0--0--0--0--0--0---------
G-----2---2--2--2--2--2--0--0--0--0--------
D------------------------------------------
A------------------------------------------
E------------------------------------------

E-0--2--3-5--7-8-8---8---8---7---7---7---8---8---8---7---7---7---7---7---7---5---5---5---7---7---7---5---5---5---
B-----------------------------------------------------------------0---0---0---0---0---0---0---0---0---0---0---0--
G-----------------9---9---9---9---9---9---9---9---9---9---9---9----0---0---0---0---0---0---0---0---0---0---0---0-
D------------------10--10--10--10--10--10--10--10--10--10--10--10------------------------------------------------
A----------------------------------------------------------------------------------------------------------------
E----------------------------------------------------------------------------------------------------------------

E--8---8---8----7---7---7----8---8---8----7---7---7----7--7--7--5--5--5--3--3--3--2--2--2------
B-------------------------------------------------------0--0--0--0--0--0--0--0--0--0--0--0-----
G---9---9---9----9---9---9----9---9---9----9---9---9-----0--0--0--0--0--0--0--0--0--0--0--0----
D----10--10--10---10--10--10---10--10--10---10--10--10-----------------------------------------
A----------------------------------------------------------------------------------------------
E----------------------------------------------------------------------------------------------

E---2---2---2---2--2 /3 p2----0--------------0-------
B----0---0---0---0-------------0------------0--------
G-----2---2---2---2-------------0----------0---------
D--------------------------------4--------4----------
A---------------------------------7------7-----------
E-------------------------  0------0----0------0-----
Related for Balance Theory tab