Song name
# A B C D E F G H I J K L M N O P Q R S T U V W X Y Z

Dead To Me - Goodbye Regret tab

Dead To Me - Goodbye Regret

Album: Cuban Ballerina
Instrument: Guitar
Tuning: eBGDAE

Tabbed By: Rolf Oslo


e||-----------------|--------------|
B||-----------------|--------------|
G||-----------------|--------------|
D||-----------------|--------------|
A||--------5--------|--------5--5--|
E||-7--7-7---7-5-7--|-7--7-7-------|
                 x3 then

Verse
e||-------------|-------------|
B||-------------|-------------|
G||-------7-----|-------------|
D||-9--9--7--7--|-9--9--4--5--|
A||-9--9--5--7--|-9--9--4--5--|
E||-7--7-----5--|-7--7--2--3--| x2


e||------------------------------------------------------------------------|
B||------------------------------------------------------------------------|
G||------------------------------------------------------------------------|
D||-4------5------4------5------4------5------4-4--4-4--4-4--4-4-----------|
A||-4------5------4------5------4------5------4-4--4-4--4-4--4-4-----------|
E||-2-(4x)-3-(4x)-2-(4x)-3-(4x)-2-(4x)-3-(4x)-2-2--2-2--2-2--2-2--2-2-2-2--|
                                                                  . . . .
                                                                  pm

e||--------------------|-----------------|
B||--------------------|-----------------|
G||--------------------|-----------------|
D||--------------------|-----------------|
A||--------------------|-----------------|
E||-7~--2~--3~--0~-2h3-|-7~--2~--3~--0~--|


Chorus
e||-------------------|-------------|
B||-------------------|-------------|
G||----------999--999-|-------------|
D||-9--4--5--999--999-|-9--4--5--2--|
A||-9--4--5--777--777-|-9--4--5--2--|
E||-7--2--3-----------|-7--2--3--0--|

Break
1.Guitar
e||-----------------|--------------|
B||-----------------|--------------|
G||-----------------|--------------|
D||-----------------|--------------|
A||--------5--------|--------5--5--|
E||-7--7-7---7-5-7--|-7--7-7-------|
                 x3 then

2.Guitar

e||---------------------------------|
B||---------------------------------|
G||-------------------6~--6h7p6--4--|
D||-9--7--5--4----------------------|
A||-------------7--5----------------|
E||---------------------------------|


Verse
e||-------------|-------------|
B||-------------|-------------|
G||-------7-----|-------------|
D||-9--9--7--7--|-9--9--4--5--|
A||-9--9--5--7--|-9--9--4--5--|
E||-7--7-----5--|-7--7--2--3--| x2


e||------------------------------------------------------------------------|
B||------------------------------------------------------------------------|
G||------------------------------------------------------------------------|
D||-4------5------4------5------4------5------4-4--4-4--4-4--4-4-----------|
A||-4------5------4------5------4------5------4-4--4-4--4-4--4-4-----------|
E||-2-(4x)-3-(4x)-2-(4x)-3-(4x)-2-(4x)-3-(4x)-2-2--2-2--2-2--2-2--2-2-2-2--|
                                                                  . . . .
                                                                  pm

e||--------------------|-----------------|
B||--------------------|-----------------|
G||--------------------|-----------------|
D||--------------------|-----------------|
A||--------------------|-----------------|
E||-7~--2~--3~--0~-2h3-|-7~--2~--3~--0~--|


Chorus
e||-------------------|-------------|
B||-------------------|-------------|
G||----------999--999-|-------------|
D||-9--4--5--999--999-|-9--4--5--2--|
A||-9--4--5--777--777-|-9--4--5--2--|
E||-7--2--3-----------|-7--2--3--0--|



e||----------------|--------------------------|
B||----------------|--------------------------|
G||-7--------------|--------------------------|
D||-7-------4------|--9--7--5--4--9--7--5--4--|
A||-5-(16x)-4------|--9--7--5--4--9--7--5--4--|
E||---------2-(8x)-|--7--5--3--2--7--5--3--2--|

Outro
1.Guitar
e||-----------------|--------------|
B||-----------------|--------------|
G||-----------------|--------------|
D||-----------------|--------------|
A||--------5--------|--------5--5--|
E||-7--7-7---7-5-7--|-7--7-7-------|
                 x3 then

2.Guitar

e||---------------------------------|
B||---------------------------------|
G||-------------------6~--6h7p6--4--|
D||-9--7--5--4----------------------|
A||-------------7--5----------------|
E||---------------------------------|
Tap to rate this tab
 
# A B C D E F G H I J K L M N O P Q R S T U V W X Y Z