Song name
# A B C D E F G H I J K L M N O P Q R S T U V W X Y Z

Dead To Me - Still Heartbeat tab

Dead To Me - Still Heartbeat

Album: Cuban Ballerina
Instrument: Guitar
Tuning: eBGDAE

Tabbed By: Rolf Oslo


Intro

1. guitar
e||------------------------------|
B||------------------------------|
G||-9-9-8-9-8-6------------------|
D||---------------6-8-9-9-8-6-4--|
A||------------------------------|
E||------------------------------|

2. guitar
e||------------------------------|
B||------------------------------|
G||-9-9------11--9-9-------------|
D||-9-9-9-11-11--9-9-9-11-4------|
A||-7-7-9-11-9---7-7-9-11-4------|
E||-----7-9----------7-9--2------|



Verse

e||------------------------------------|
B||------------------------------------|
G||-11-11-7-7--------------------------|
D||-11-11-7-7-9-9-9-9------------------|
A||-9--9--5-5-9-9-9-9------------------|
E||-----------7-7-7-7-----end with--3--|


Pre-Chorus

e||--------------------------|
B||--------------------------|
G||--------------------------|
D||-2-2--2-2--2-2--2-2--2-2--|
A||-2-2--2-2--2-2--2-2--2-2--|
E||-0-0--0-0--0-0--0-0--0-0--|


Chorus

e||--------------------------|
B||--------------------------|
G||--------------------------|
D||-2-2-6-7---2-2-6-5--------|
A||-2-2-6-7---2-2-6-5--------|
E||-0-0-4-5---0-0-4-3--------| x 2
Tap to rate this tab
 
# A B C D E F G H I J K L M N O P Q R S T U V W X Y Z