Song name
# A B C D E F G H I J K L M N O P Q R S T U V W X Y Z

Dead To Me - Special Professional tab

Artist:  Dead To Me
Song: "Special Professional"
Album:  Cuban Ballerina


By:  ganjavitis@hotmail.com
     mpp.org


Chords should all be correct.  Listen for the strumming pattern.


Intro:

e|--------------|
b|--------------|
g|9--------8----|
d|9--9--6--8----|
a|7--9--6--6----|
e|---7--4-------|


Verse:

e|-------------------------------------------------------------|
b|-------------------------------------------------------------|
g|9--------8-----9-----11-11-----9--------8-----9--11----------|
d|9--9--6--8-----9--9--11-11-----9--9--6--8-----9--11--9--9----|
a|7--9--6--6-----7--9--9--9------7--9--6--6-----7--9---9--9----|
e|---7--4-----------7---------------7--4---------------7--7----|


Chorus:

e|-----------------------------0--|
b|-----------------------------0--|
g|-------------6---------------0--|
d|-6--4----2---6---(4x)----4------|
a|-6--4----2---4-----------4------|
e|-4--2----0---------------2------|


e|--------------------------------------------------------------|
b|--------------------------------------------------------------|
g|---------9----------------------------------------------------|
d|-9-p.m.--9------6--4---2---6-8-9-8-6--------------------------|
a|-9-------7------6--4---2---4-6-7-6-4-(only does this----------|
e|-7--------------4--2---0--------------second time i think)----|


Outro:

e|---------------|
b|---------------|
g|-------8--9----|
d|-9--6--8--9----|
a|-9--6--6--7----|
e|-7--4----------|
Tap to rate this tab
 
# A B C D E F G H I J K L M N O P Q R S T U V W X Y Z