Song name
# A B C D E F G H I J K L M N O P Q R S T U V W X Y Z

Dead Trooper - Dead And Dreaming tab

Band:  Dead Trooper
Album: Demo 2003
Song:  Dead and Dreaming


.  - palm mute           /  - slide up to
\  - slide down to       ~  - vibrato
h  - hammer on           b  - Bend
p  - pull off            Suffixes for bend
t  - tap                 f  - full bend    h - half bend
ph - pinched harmonic    q  - quarter bend t - tap bend
*  - see comment         ^  - Hold bend    r release bend
x  - Stuccatto           ~  - vibrato bend
,  - slight palm mute    () - ghost note, sustained note
"  - tremolo note        <> - Trill

Tune down one whole step and drop the 6th string to C
Tuning C G C F A D

riff 1:
|-------------------------------------------------------------------|
|-------------------------------------------------------------------|
|-------------------------------------------------------------------|
|-------------------------------------------------------------------|
|---------------------------------------------------------7--8------|
|-0-000-000-000-000-000-000-000-000-000-000-000-000-000-007--8------|

lead over riff 1:
|-------------------------------------------------------------------|
|-------------------------------------------------------------------|
|-----5---------------5---------------------------------------------|
|---7---7---8-7-8---7---7-5-----------------------------------------|
|-5-------8-------5---------8-7-------------------------------------|
|-------------------------------------------------------------------|
Break :
|-------------------------------------------------------------------|
|-------------------------------------------------------------------|
|-------------------------------------------------------------------|
|-3-3-3-3-3-3-3-3-2-2-2-2-2-2-2-2-----------------------------------|
|-3-3-3-3-3-3-3-3-2-2-2-2-2-2-2-2-----------------------------------|
|-3-3-3-3-3-3-3-3-2-2-2-2-2-2-2-2-----------------------------------|
p.m. gradually release -------->


riff 2:
|-------------------------------------------------------------------|
|-------------------------------------------------------------------|
|-------------------------------------------------------------------|
|-------------------------------------------------------------------|
|---5-7----8---3-2---5-7---8-------5-7---8---3-2-------5-------5----|
|-0-----0----0-----0-----0---3-2-0-----0---0-----0-3-2---0-3-2------|
palm-mute every note played on the 6th string

Riff 3 (verse riff):
|-------------------------------------------------------------------|
|-------------------------------------------------------------------|
|-------------------------------------------------------------------|
|-------------------------------------------------------------------|
|-0------0-------3-------3-------5------5-------3-------------------|
|-0-000000-0000003-3333333-3333335-555555-5555553-33333h5-3h5-------|
    pm...  pm....  pm....  pm....  pm...  pm....  pm..
(palm-mute all notes 3rd time)

Riff 4:
|-------------------------------------------------------------------|
|-------------------------------------------------------------------|
|-------------------------------------------------------------------|
|-------7-6-7------7-6-7------7-6-79-10-6---------------------------|
|-------5-4-5------5-4-5------5-4-57--8-4---------------------------|
|-0-000------0-000------0-000---------------------------------------|
(last time in chorus #2 stop here  | and let ring)

Riff 5:
|-------------------------------------------------------------------|
|-------------------------------------------------------------------|
|-------------------------------------------------------------------|
|-------2-1-2------2-1-2------2-1-24--5-1---------------------------|
|-------2-1-2------2-1-2------2-1-24--5-1---------------------------|
|-2-2-2------2-2-2------2-2-2---------------------------------------|
(palm-mute all notes played on 6th string)

Riff 6(guitar 1):
|-------------------------------------------------------------------|
|-------3-4-3-------3-4-3-------3-4-3---3---------------------------|
|-------------------------------------4---4-3-4-3---3---------------|
|---3-4---------3-4---------3-4-------------------4-----------------|
|-2-----------2-----------2-----------------------------------------|
|-------------------------------------------------------------------|

Riff 6:(guitar 2)
|-------------------------------------------------------------------|
|-------------------------------------------------------------------|
|-------3-4-3-------3-4-3-------3-4-3---3---------------------------|
|---3-4---------3-4---------3-4-------4---4-3-4-3---3---------------|
|-2-----------2-----------2-----------------------4-----------------|
|-------------------------------------------------------------------|

Riff 7(guitar 2 all alone):
|-------------------------------------------------------------------|
|-------------------------------------------------------------------|
|-------------------------------------------------------------------|
|-------------------------------------------------------------------|
|-------------------------------------------------------------------|
|-0-000-000-000-000-000-000-000-000-000-000-000-000-000-000-000-00--|
palm-mute aaaaaall the way



riff 8(same as riff 2 only with power chords):
|-------------------------------------------------------------------|
|-------------------------------------------------------------------|
|-------------------------------------------------------------------|
|---7-9---10---5-4---7-9--10-------7-9--10---5-4-------7-------7----|
|---5-7----8---3-2---5-7---8-------5-7---8---3-2-------5-------5----|
|-0-----0----0-----0-----0---3-2-0-----0---0-----0-3-2---0-3-2------|

END

www.deadtrooper.com
Tap to rate this tab
# A B C D E F G H I J K L M N O P Q R S T U V W X Y Z