Song name
# A B C D E F G H I J K L M N O P Q R S T U V W X Y Z

Dead Trooper - Spiritual Funeral tab

Band:  Dead Trooper
Album: Spiritual Funeral EP 2005
Song:  Spiritual Funeral


.  - palm mute           /  - slide up to
\  - slide down to       ~  - vibrato
h  - hammer on           b  - Bend
p  - pull off            Suffixes for bend
t  - tap                 f  - full bend    h - half bend
ph - pinched harmonic    q  - quarter bend t - tap bend
*  - see comment         ^  - Hold bend    r release bend
x  - Stuccatto           ~  - vibrato bend
,  - slight palm mute    () - ghost note, sustained note
"  - tremolo note        <> - Trill

Tune down one whole step and drop the 6th string to C
Tuning C G C F A D
								       |
Intro:
GIT 1:
 G|2-------2-------2-------2-------2---------------------------------|
 C|2-1-----2-1-----2-1-----2-1-----2---------------------------------|
   .       .       .       .       .
GIT 2:
 G|2-------2-------2-------2-------2---------------------------------|
 C|2-1-----2-4-----2-1-----2-4-----2---------------------------------|
   .       .       .       .       .

RIFF 1:
GIT 1:
 |-------------------------------------------------------------------|
 |-------------------------------------------------------------------|
 |-------------------------------------------------------------------|
 |-------------------------------------------------------------------|
 |-1--1--1-1-6--4--4--2--2--0--------------------010101--010101------|
 |-1--1--1-1-8--6--6--4--4--0--0--0--0--0--0--0--------3-------3-----|
         . .                   .  .  .  .  .  .        ~       ~
                                                               |
                                       2ND TIME BOTH GUITARS:  PH

GIT 2: (3RD TIME)
 |-------------------------------------------------------------------|
 |-------------------------------------------------------------------|
 |-------------------------------------------------------------------|
 |-------------------------------------------------------------------|
 |-1--1--1-1-------------------------------------010101--010101------|
 |-1--1--1-1-4--3--3--1--1--3--0--0--0--0--0--0--------3-------3-----|
         . .                   .  .  .  .  .  |
                                              |
     4TH TIME : BOTH GUITARS STOP & LET RING HERE(GIT2 ON 3RD FRET)


RIFF 2 (THE LINK) :
 |-------------------------------------------------------------------|
 |-------------------------------------------------------------------|
 |-------------------------------------------------------------------|
 |-5-7-----------5-7-----------5-7-----------------------------------|
 |-----6-5-----------6-5-----------6-5-------------------------------|
 |---------000-----------000-----------000--633333633333522222633333-|
                                            |TREMOLO PICKING-------|


RIFF 3 :
(VERSE)
|------------------------------------------------------------------------------|
|------------------------------------------------------------------------------|
|------------------------------------------------------------------------------|
|------------------------------------------------------------------------------|
|------------------------------------------------------------------------------|
|5-7-3-0-000-0000-5-7-3-0-0000-0000-5-7-3-0-0000-0000-633333633333522222633333|
         .... ....         .... ....         .... .... |TREMOLO PICKING-------|

|------------------------------------------------------------------------------|
|------------------------------------------------------------------------------|
|------------------------------------------------------------------------------|
|------------------------------------------------------------------------------|
|------------------------------------------------------------------------------|
|5-7-3-0-000-000-5-7-3-0-000-000-5-7-3-0-000-000-633333633333522222633333------|
         ... ...         ... ...         ... ... |TREMOLO PICKING-------|

RIFF 4 :

|-------------------------------------------------------------------|
|-------------------------------------------------------------------|
|-------------------------------------------------------------------|
|-------------------------------------------------------------------|
|-------------------------------------------------------------------|
|-310310310410310310310410310310310410310310410---------------------|
  .............................................

RIFF 5 :
(THE PART WITH CLEAN VOCALS)
GIT 1:
|-------------------------------------------------------------------|
|-------------------------------------------------------------------|
|-------------------------------------------------------------------|
|-------------------------------------------------------------------|
|----------------0-0----------------------------0-0-----------------|
|-0------0-0-2-3-----3-5----3---0-------0-0-2-3-----3-5----3-----7--|
                                                                 ~
GIT 2:
|-------------------------------------------------------------------|
|-------------------------------------------------------------------|
|-------------------------------------------------------------------|
|-------------------------------------------------------------------|
|--------------0-3-3-0-1----------------------0-3-3-0-1----0-----3--|
|-3------3-3-5--------------1---3-------3-3-5--------------------~--|

GIT 3:
|-------------------------------------------------------------------|
|-------------------------------------------------------------------|
|-------------------------------------------------------------------|
|----------------2-2----------------------------2-2--------------2--|
|-0------0-0-1-3-----3-5----3---0-------0-0-1-3-----3-5-----3----~--|
|-------------------------------------------------------------------|

RIFF 6 :
(OVER SOLO, BASICALLY THE SAME AS RIFF 4, ONLY TWICE AS SLOW)

|-------------------------------------------------------------------|
|-------------------------------------------------------------------|
|-------------------------------------------------------------------|
|-------------------------------------------------------------------|
|-3103103104103103103104103103103104103103100--0--------------------|
|-3103103104103103103104103103103104103103100--0--------------------|
  ...........................................  .

SOLO:
|-------------------------------------------------------------------|
|---F-R----------------F-R------------------------------------------|
|---5---4----H---------5---4----H--------H-------H------H-----------|
|-0--PH-~--8-10-8\7--0--PH-~--8-10-----8-10----8-10---8-10----------|
|----------------------------------10-------8-------7------10-10/12-|
|-------------------------------------------------------------------|

|-----12--------------------12------------------|
|-------1514--14--------------1514--1214121415--|
|---14------15--15141514--14------15--------~---|
|-12--------------------12----------------------|
|-----------------------------------------------|
|-----------------------------------------------|

|-----------------------------------131213151312151517191715------151719|
|-------------1091012109131213151312------------------------151719------|
|9991091012109----------------------------------------------------------|
|-----------------------------------------------------------------------|
|-----------------------------------------------------------------------|
|-----------------------------------------------------------------------|

|20/22~~~~~~~~~~~-------|
|-----------------------|
|---HEAVY VIB.ARM-------|
|-----------------------|
|-----------------------|
|-----------------------|

RIFF 7 :
(THE SAME AS RIFF 4 & 6, ONLY AS SLOW AS A REALLY SLOW, OLD AND DYING ELEPHANT
WADING THROUGH 100000 YEAR OLD MUD WITH 100 TON LEAD WEIGHTS ON ALL FEET
......HIRR HIRR)

RIFF 8 :
(THE SAME ONLY WITH FAST PICKING)

|----------------------------|---------------------------------------|
|----------------------------|---------------------------------------|
|--------3X------------------|----------1X---------------------------|
|----------------------------|---------------------------------------|
|----------------------------|---------------0--0--------------------|
|-3-1110-3-1110-3-1110-4-1110|-3-1110-3-1110-0--0--------------------|
  . .... . .... . .... . ....  . .... . .... .  .


THANK YOU

WWW.DEADTROOPER.COM
Tap to rate this tab
# A B C D E F G H I J K L M N O P Q R S T U V W X Y Z