Song name
# A B C D E F G H I J K L M N O P Q R S T U V W X Y Z

Dead - Sounds Of The Dead tab

D Standard
So this is kinda a unheard of song and i seriously doubt you could find it on youtube.
And the only reason you are looking this up is because you are one of the few fans that
this band has and want to figure out how to play some of their music. So i believe all 
of this is correct. I'll try to tab this entire album if i can.
Also i believe this to be 100000000% accurate.
Main Riff
D-------------------------------------------------------------------------|
A-------------------------------------------------------------------------|
F-------------------------------------------------------------------------|
C-------------------------------------------------------------------------|
G-----2-------9----10---10---10---10---10-9-------------------------------|
D-0-0-0-0-0-7-7-7-7--7-7--7-7--7-7--7-7-----------------------------------|




D------------------------------------------------------------------------|
A------------------------------------------------------------------------|
F------------------------------------------------------------------------|
C------------------------------------------------------------------------|
G-----2-----9----9---9---9---9---9-7-------------------------------------|
D-0-0-0-0-0-7-7-7-7-7-7-7-7-7-7-7----------------------------------------|




Chorus
D------------------------------------------------------------------|
A------------------------------------------------------------------|
F------------------------------------------------------------------|
C------------------------------------------------------------------|
G-----6----7----6----7---------------------------------------------|
D-4-4-4-4-4-4-4-4-4-4----------------------------------------------|





D------------------------------------------------------------------|
A------------------------------------------------------------------|
F------------------------------------------------------------------|
C------------------------------------------------------------------|
G-----5----6----5----6---------------------------------------------|
D-3-3-3-3-3-3-3-3-3-3----------------------------------------------|


Repeat until done


D------------------------------------------------------------|
A------------------------------------------------------------|
F------------------------------------------------------------|
C------------------------------------------------------------|
G-5-4-3-2----------------------------------------------------|
D-3-2-1-0----------------------------------------------------|
bridge
D-----------------------------------------------------------|
A-----------------------------------------------------------|
F-----------------------------------------------------------|
C----3----5----7--------------------------------------------|
G-0----3----5-----------------------------------------------|
D-----------------------------------------------------------|

Repeat until done.

D-------------------------------------------------------------|
A-------------------------------------------------------------|
F-------------------------------------------------------------|
C-------------------------------------------------------------|
G-7-6-5-4-3---------------------------------------------------|
D-5-4-3-2-1---------------------------------------------------|

Repeat Main riff

Outro
D----------------------------------------------------------------|
A----------------------------------------------------------------|
F----------------------------------------------------------------|
C----------------------------------------------------------------|
G-6-6-7----------------------------------------------------------|
D-4-4---4-4-4-4-4-4----------------------------------------------|
x2

D----------------------------------------------------------------|
A----------------------------------------------------------------|
F----------------------------------------------------------------|
C----------------------------------------------------------------|
G-5-5-6----------------------------------------------------------|
D-3-3---3-3-3-3-3-3----------------------------------------------|
x2

Repeat until done
Tap to rate this tab
 
# A B C D E F G H I J K L M N O P Q R S T U V W X Y Z