Song name
# A B C D E F G H I J K L M N O P Q R S T U V W X Y Z

Deadboy And The Elephantmen - Ancient Man tab

-----------------------------------------------------------------------------
			     Ancient Man-Deadboy and the Elephantmen
-----------------------------------------------------------------------------
Tabbed by: Ross Conner
Email: Stealshot337@aol.com

Tuning:Standard

Main Riff: (intro, verse)

     ...Pale child that was left behind haunts me endlessly....

     E                                 F#
e|--------------------------------------------------------------------------|
B|--------------------------------------------------------------------------|
G|---9-------9--------9-------9---------------------------------------------|
D|---9-9-9-9-9-9-9-9|-9-9-9-9-9-9-9-9|-4-4-4-4-4-4-4-4|-4-4-4-4-4-4-4-4--0!-|
A|---7-7-7-7-7-7-7-7|-7-7-7-7-7-7-7-7|-4-4-4-4-4-4-4-4|-4-4-4-4-4-4-4-4--0!-|
E|---0-------0------|-0-------0------|-2-2-2-2-2-2-2-2|-2-2-2-2-2-2-2-2--0!-|
   ^^^Repeat until...


Chorus:

    ...I envy the night, for its absence of light...

   F#                                 B
e|--------------------------------------------------------------------------|
B|--------------------------------------------------------------------------|
G|--------------------------------------------------------------------------|
D|------------------------------------4-4-4-4-4-4-4-4|-4-4-4-4-4-4-4-4------|
A|-4-4-4-4-4-4-4-4-|-4-4-4-4-4-4-4-4|-2-2-2-2-2-2-2-2|-2-2-2-2-2-2-2-2------|
E|-2-2-2-2-2-2-2-2-|-2-2-2-2-2-2-2-2|-2-2-2-2-2-2-2-2|-2-2-2-2-2-2-2-2------|


-0!--
-0!--  =Open strum between chords.
-0!--

Email me any questions.

peace.

-Conner
Tap to rate this tab
 
# A B C D E F G H I J K L M N O P Q R S T U V W X Y Z