Song name
# A B C D E F G H I J K L M N O P Q R S T U V W X Y Z

Deadboy And The Elephantmen - Stop Im Already Dead tab

 [(^)=where it goes up in the lyrics]
[(\/)=where it goes back down]
e|------------------------------------------|
B|------------------------------------------|
G|-(\/)-------------(^)---------------------|
D|--7-7-7-7-7-7-7-7-12-12-12-12-12-12-12-12-|  x2
A|--7-7-7-7-7-7-7-7-12-12-12-12-12-12-12-12-|
E|--5-5-5-5-5-5-5-5-10-10-10-10-10-10-10-10-|
    (\/)
The spirit climbs my spine to the brain
              (^)
Following the railroad tracks down again
	 (\/)            	      (^)
I needed space with soul maybe we can die there
[Heavy]
e|------------------------------------------     -------|
B|------------------------------------------     -------|
G|-(\/)-------------(^)---------------------     -------|
D|--7-7-7-7-7-7-7-7-12-12-12-12-12-12-12-12-  x2 -12-12-|
A|--7-7-7-7-7-7-7-7-12-12-12-12-12-12-12-12-     -12-12-|
E|--5-5-5-5-5-5-5-5-10-10-10-10-10-10-10-10-     -10-10-|
	      (\/)		 (^)
Oh baby we can Stop, I'm already dead
(\/)		  (^)
Stop, I'm already dead
[Heavy]
e|------------------------------------------|
B|------------------------------------------|
G|-(\/)-------------(^)---------------------|
D|--7-7-7-7-7-7-7-7-12-12-12-12-12-12-12-12-|  x4
A|--7-7-7-7-7-7-7-7-12-12-12-12-12-12-12-12-|
E|--5-5-5-5-5-5-5-5-10-10-10-10-10-10-10-10-|
(\/)			         (^)
                        My, my my mother she said
(\/)					          (^)
Heaven's on one shoulder, but baby Hell is on the other yeah!
    (\/)                                                   (^)
Tied neatly in a box beneath the bed it was the bones of my father
	      (\/)		           (^)
Oh baby we can Stop (nanaaooo) I'm already dead. Yeah! Yeah, Yeah!


e|-------------------------------|
B|-------------------------------|
G|-(\/)-------------(^)----------|
D|--7-7-7-7-7-7-7-7-12-12-12-12--|
A|--7-7-7-7-7-7-7-7-12-12-12-12--|
E|--5-5-5-5-5-5-5-5-10-10-10-10--|
(\/)	                    (^)
Stop (nanaaooo) I'm already dead. Yeah!

e|------------------------------------|
B|------------------------------------|
G|------------------------------------|
D|---14-14--14----12-12--12-7---------|
A|---14-14--14----12-12--12-7---------|
E|---12-12--12----10-10--10-5---------|

e|-------------------------|
B|-------------------------|
G|-------------------------|
D|-----14---12-------------|
A|-----14---12-------------|
E|-----12---10-------------|
I am,  aaallready dead

e|------------------------------------------|
B|------------------------------------------|
G|------------------------------------------|
D|-7-7-7--7-7-7----------7-7-7--7-7-7-------|
A|-7-7-7--7-7-7----------7-7-7--7-7-7-------|
E|-5-5-5--5-5-5----------5-5-5--5-5-5-------|
		  Uh-huh!	       Oooh!
e|-------------------------------------------------------------|
B|-------------------------------------------------------------|
G|-------------------------------------------------------------|
D|-12-12-12--12-12-12--------------12-12-12--12-12-12----------|
A|-12-12-12--12-12-12--------------12-12-12--12-12-12----------|
E|-10-10-10--10-10-10--------------10-10-10--10-10-10----------|
			 Whooh-oo!	              Yeaaah!


e|--------------------------------------|
B|--------------------------------------|
G|--------------------------------------|
D|-7-7-7--7-7-7----------7-7-7--7-7-7---|
A|-7-7-7--7-7-7----------7-7-7--7-7-7---|
E|-5-5-5--5-5-5----------5-5-5--5-5-5---|
		 Uh-huh!		      Oooh!
e|-----------------------------------------------------|
B|-----------------------------------------------------|
G|-----------------------------------------------------|
D|-12-12-12--12-12-12--------------12-12-12--12-12-12--|
A|-12-12-12--12-12-12--------------12-12-12--12-12-12--|
E|-10-10-10--10-10-10--------------10-10-10--10-10-10--|
			 Whooh-oo!


e|------------------------------------------|
B|------------------------------------------|
G|(\/)--------------------------------------|
D|-7-7-7--7-7-7----------7-7-7--7-7-7-------|
A|-7-7-7--7-7-7----------7-7-7--7-7-7-------|
E|-5-5-5--5-5-5----------5-5-5--5-5-5-------|

e|-----------------------------------------------------|
B|-----------------------------------------------------|
G|-(^)-------------------------------------------------|
D|-12-12-12--12-12-12--------------12-12-12--12-12-12--|
A|-12-12-12--12-12-12--------------12-12-12--12-12-12--|
E|-10-10-10--10-10-10--------------10-10-10--10-10-10--|

	      (\/)		           (^)
Oh baby we can Stop (nanaaooo) I'm already dead. Yeah! Yeah, Yeah!
(\/)			    (^)
Stop (nanaaooo) I'm already dead. Yeah! Yeah, Yeah!


[Heavy]
e|-----------------------------------------------|
B|-----------------------------------------------|
G|-(\/)-----------------(^)----------------------|
D|--7-7-7-7-7-7-7-7-12-12-12-12-12-12-12-12------|
A|--7-7-7-7-7-7-7-7-12-12-12-12-12-12-12-12------|
E|--5-5-5-5-5-5-5-5-10-10-10-10-10-10-10-10------|
(\/)		            (^)
Stop (nanaaooo) I'm already dead. Yeah! Yeah, Yeah!
e|-------------------------------|
B|-------------------------------|
G|------------------(^)----------|
D|--7-7-7-7-7-7-7-7-12-12-12-12--|
A|--7-7-7-7-7-7-7-7-12-12-12-12--|
E|--5-5-5-5-5-5-5-5-10-10-10-10--|
(\/)		           (^)
Stop (nanaaooo) I'm already dead. Yeah!
e|----------------------------|
B|----------------------------|
G|----------------------------|
D|---14-14--14----12-12--12-7-|
A|---14-14--14----12-12--12-7-|
E|---12-12--12----10-10--10-5-|

e|-------------------------|
B|-------------------------|
G|-------------------------|
D|-----3----5------------7-|
A|-----3----5------------7-|
E|-----1----3------------5-|
I am,  aaallready dead
Tap to rate this tab
 
# A B C D E F G H I J K L M N O P Q R S T U V W X Y Z