Song name
# A B C D E F G H I J K L M N O P Q R S T U V W X Y Z

Deadboy And The Elephantmen - No Rainbow tab

-------------------------------------------------------------------------------
		   No Rainbow - Deadboy & the Elephant Men
-------------------------------------------------------------------------------
Tabbed by:JO2087
Email:

Tuning:Standard

                      //////Riff A\\\\\\
e|----------------------------|-------------------------------|
B|----------------------------|-------------------------------|
G|---4-------4-----4--4-------|-------------------------------|
D|---4-------4-----4--4-------|----4-------4-----4--4---------|
A|---2----2--2-----2--2--0----|----4-------4-----4--4--0------|
E|----------------------------|----2----2--2-----2--2---------|

                     //////Riff B\\\\\\
e|----------------------------|-------------------------------|
B|----------------------------|-------------------------------|
G|---6-------6-----6--6-------|---4-------4------4--4---------|
D|---6-------6-----6--6-------|---4-------4------4--4---------|
A|---4----4--4-----4--4--0----|---2----2--2------2--2--0------|
E|----------------------------|-------------------------------|

e|----------------------------|-------------------------------|
B|----------------------------|-------------------------------|
G|----------------------------|-------------------------------|
D|---4-------4-------4--------|------4-----4--4----4--4-------|
A|---4-------4-------4--------|------4-----4--4----4--4--0----|
E|---2----2--2-------2--------|---2--2-----2--2----2--2-------|

                      //////Riff C\\\\\\
e|----------------------------|-------------------------------|
B|----------------------------|-------------------------------|
G|---4---------4----4--4------|-------------------------------|
D|---4------4--4----4--4------|---4-------4-----4--4----------|
A|---2---2-----2----2--2---0--|---4-------4-----4--4--0-------|
E|----------------------------|---2----2--2-----2--2----------|

e|----------------------------|------PLAY THIS PART THE-------|
B|----------------------------|-----FIRST AND THIRD TIME------|
G|---6-------6-----6--6-------|-------RIFF C IS PLAYED--------|
D|---6-------6-----6--6-------|---4---------------------------|
A|---4----4--4-----4--4--0----|---4---------------------------|
E|----------------------------|---2---------------------------|

e|----PLAY THIS PART THE------|
B|----SECOND TIME RIFF C------|
G|----IS PLAYED---------------|
D|---4-------4-----4--4-------|
A|---4-------4-----4--4--0----|
E|---2----2--2-----2--2-------|

                     //////RIFF D\\\\\\
e|----------------------------|------FIRST TIME RIFF D--------|
B|----------------------------|------IS PLAYED----------------|
G|---6-------6-----6--6-------|-------------------------------|
D|---6-------6-----6--6-------|---4-------4-----4--4----------|
A|---4----4--4-----4--4--0----|---4-------4-----4--4--0-------|
E|----------------------------|---2----2--2-----2--2----------|

e|-----SECOND TIME RIFF D-----|
B|-----IS PLAYED--------------|
G|----------------------------|
D|---4------------------------|
A|---4------------------------|
E|---2------------------------|


INTRO - RIFF A 2x's
VERSE 1 - RIFF A 2x's + RIFF B 2x's
VERSE 2 - RIFF A 2x's + RIFF B 2x's
CHORUS - RIFF A 2x's + RIFF C
VERSE 3 - RIFF A 2x's + RIFF B 2x's
VERSE 4 - RIFF A 2x's + RIFF B 2x's
CHORUS - RIFF A 2x's + RIFF C + RIFF A 2x's + RIFF C
ONTRO - RIFF A 3x's + RIFF D + RIFF A 3x's + RIFF D


IF YOU HAVE TROUBLE UNDERSTANDING MY TAB
JUST LISTEN TO THE SONG AND YOU'LL FIGURE IT OUT.




===============================================================================
Tap to rate this tab
 
# A B C D E F G H I J K L M N O P Q R S T U V W X Y Z