Song name
# A B C D E F G H I J K L M N O P Q R S T U V W X Y Z

Deadenduk - Never Ending Reason tab

Dead End - Never Ending Reason
Insurection E.P

Intro:

(listen to the song on www.myspace.com/deadendUK for the timings and such)
e|---------------------------------------    e|------------------------------|
B|---------------------------------------    B|------------------------------|
G|---------------------------------------    G|-----------2------------------|
D|----0-2-2h3p2-0----0--0--3-2-0----------   D|---0-2-2h3--0-----0--0--3-2-0-|
A|--0------------0--0--0---3-2-0----------   A|--0----------0---0--0---3-2-0-|
D|-0---------------3--2----3-2-0----------x4 D|-0--------------3--2----3-2-0-|



Pre Verse:


e|-------------------------------------------------------|
B|-------------------------------------------------------|
G|-----------2-------------------------------------------|
D|---0-2-2h3--2h3p2-0---0--0--3-2-3-2-0---(let ring out)-|
A|--0------------------0--0---3-2-3-2-0------------------|
D|-0------------------3--2----3-2-3-2-0------------------|




Verse:


e|--------------------------------------------------------------|
B|--------------------------------------------------------------|
G|--------------------------------------------------------------|
D|0-0-0----5h8p5h8p4/4h7p4h7p4--0-0-0---------------------------|
A|0-0-0-------------------------0-0-0---5h8p5h8p4/4h7p4h7p4-----|
D|0-0-0-------------------------0-0-0---------------------------|
  * * *                         * * *

e|-------------------------------------------------|
B|-------------------------------------------------|
G|-------------------------------------------------|
D|0-0-0--------------------------0-0-0-0-----------|
A|0-0-0--------------------------0-0-0-0--3(ph)----|
D|0-0-0----3h6p3h6ph3/2h5p2h5p2--0-0-0-0-----------|x6
  * * *                          * * * *



*** WILL BE DOING REST OF SONG SOON ***



  * * *                          * * * *
Tap to rate this tab
# A B C D E F G H I J K L M N O P Q R S T U V W X Y Z