Deadguy - Doom Patrol tab

Deadguy
"Doom Patrol"
Fixation on a Co-worker
(Victory)
http://en.wikipedia.org/wiki/Deadguy

Standard tuning

Verse

left

|---------------------------------------------|
|-------0-------------------------------------|
|-------0--------------7-7-7-7----------------|
|----------------------6-6-6-6----------------|
|----------------------5-5-5-5----------------|
|-4h5------5-5-5-4-3-2------------------------|
pm         . . . . . .

|----------------------------------------------|
|---------------------------------------[5]----|
|---------------------------------------[5]----|
|---------------------------------------[5]-x4-|
|-6-----6------6-----6-----6---6----4-0--------|
|---5-5---5-5----5-5---5-5---5---5--4-0--------|
pm  . .   . .    . .   . .   .   .  . .

Chorus

(sometimes hit b string harmonic on the third fret)
|-----------------------------------------------|
|-------------------------------------[5]-------|
|-----[3]----------------[3]----------[5]-------|
|---------------------------------6-6-[5]-------|
|---------x3-----[3]---------x4---4-4-----x4----|
|-3p1--------3p1-----3p1----------4-4-----------|
pm                                . .


Breakdown
                                 1.    2.
|-------------------------------------|-----------|
|-------------------------------------|-----------|
|-----8b---6-------9---9---9---9---9--|-9-12-9-12-|
|---3-x----6-------8---8---8---8---8--|-8-11-8-11-|
|-3-3-6b-4-4-4---7-7-7-7-7-7-7-7-7-7--|-7-10-7-10-|
|-1-1----4-4-4/9~---------------------|-----------|
pm.      .       .   .   .   .   .

|-------------------------------------|-----------|
|-------------------------------------|-----------|
|-----8----6-------5---5---5---5---5--|-5-8-5-8---|
|-----x----6-------4---4---4---4---4--|-4-7-4-7---|
|3333-6b-4-4-4---3-3-3-3-3-3-3-3-3-3--|-3-6-3-6---|
|1111----4-4-4/9~---------------------|-----------|
pm..     .       .   .   .   .   .

|---------------|
|---------------|
|---------------|
|-3-------------|
|-3-------------|
|-1-------------|

right (Chris was known to make a lot of random noise, so keep that in mind)

|-------0--------------------------------------|
|-------0--------------------------------------|
|-------0--------------------------------------|
|------[5]-------------------------------------|(random pick scrapes and notes)
|-6--------6---7-6-5-4-------------------------|
|-5--------5-----------------------------------|
pm             . . . .

|----------------------------------------------|
|---------------------------------------[5]----|
|---------------------------------------[5]----|
|---------------------------------------[5]-x4-|
|-6-----6------6-----6-----6---6----4-0--------|
|---5-5---5-5----5-5---5-5---5---5--4-0--------|
pm  . .   . .    . .   . .   .   .  . .

Chorus

(sometimes hit randon harmonics)
|-----------------------------------------------|
|-------------------------------------[5]-------|
|-----[3]----------------[3]----------[5]-------|
|---------------------------------6-6-[5]-------|
|---------x3-----[3]---------x4---4-4-----x4----|
|-3p1--------3p1-----3p1----------4-4-----------|
pm                                . .


Breakdown

|-------------------------------------------------|
|-------------------------------------------------|
|-----8b---6------------8b---6--------------------|
|---3-x----6------------x----6--------------------|
|-3-3-6b-4-4-4----------6b-4-4-4------------------|
|-1-1----4-4-4/9~--1111----4-4-4/9----------------|
pm. .              ....

|----------------|
|-----(noise)----|
|----------------|
|-3--------------|
|-3--------------|
|-1--------------|
Tap to rate this tab
 
# A B C D E F G H I J K L M N O P Q R S T U V W X Y Z