Guitaretab - guitar tabs
Song name
# A B C D E F G H I J K L M N O P Q R S T U V W X Y Z

Deadlines - Go Go To The Graveyard tab

http://www.freakmusic.com/deadlines.html

Band: The Deadlines
Song: Go-Go To the graveyard

Tabber: John Cukras
email: riffreaper@yahoo.com

Tuning: Normal

Riff 1:
E-------------------------------------------|
B-------------------------------------------|
G-------------------------------------------|
D-9-99-7-77--------------------9-99-7-77----|
A-----------55-7-5-55 x's 7---------------5-|
E-------------------------------------------|

Riff 2:
E--------------------------|
B--------------------------|
G--------------------------|
D-9-99-7-77----------------|
A-7-77-5-55-55-77-55-------|
E-----------33-55-33 x's 4-|
[ Tab from: http://www.guitaretab.com/d/deadlines/30585.html ]
Riff 3: 10's.
E---------------------------------------------------------------------------|
B---------------------------------------------------------------------------|
G---------------------------------------------------------------------------|
D-----------999-10-999-------------------1010101010-7777777-5555555-3333333-|
A-7777-9999------------x's 3---7777-9999------------------------------------|
E---------------------------------------------------------------------------|

Riff 2 x's 8

Riff 3

Riff 2 x's 4

Outro:
E-----------------------------------|
B-----------------------------------|
G-----------------------------------|
D-9999999-7777777-555555-4444444--2-|
A-7777777-5555555-333333-2222222--2-|
E---------------------------------0-|
Related for Go Go To The Graveyard tab
×
Go Go To The Graveyard