Song name
# A B C D E F G H I J K L M N O P Q R S T U V W X Y Z

Deadlines - Vampires In Love tab

-------------------------------------------------------------------------------
			     The Deadlines - Vampires In Love
-------------------------------------------------------------------------------
Transcribed by: Bryan McLellan
Tuning: standard

Not a very well known band. This is often listed as a Misfits song on P2P networks, but it's obviously not.

Gtr. 1 - Lead
Gtr. 2 - Rhythm


Gtr. 1 Intro/Outro (starts song, fades away, enters back in at 2:14)
e|----------------------------------------------------------------------|
B|----------------------------------------------------------------------|
G|----------------------------------------------------------------------|
D|-2-2-0--2-2-2-0--2-2-2-0--2-2-2-0-2-----------------------------------|
A|--------------------------------------3-3-3-3-3-3-3-3-2-2-0-2-2-0-2-0-|
E|----------------------------------------------------------------------|

I wasn't sure if this line was a guitar or a synthesizer, but I included it anyways.
e|--------------17--15------15--20--19--17--19--|
B|-17--20--17-----------19----------------------|
G|----------------------------------------------|
D|----------------------------------------------|
A|----------------------------------------------|
E|----------------------------------------------|

Other than this, Gtr.1/synth just plays the root notes of what Gtr.2 is playing.



Gtr. 2 

Enter about 0:14 into the song.
e|-----------------------------------------------------------------|
B|-----------------------------------------------------------------|
G|-9------------------------5------------------------4-------------|
D|-9------------------------5------------------------4-------------|
A|-7------------------------3------------------------2-------------|
E|-----------------------------------------------------------------|

Now 0:29 into the song. Strumming may not be completely accurate, but they're just power chords.
e|-----------------------------------------------------------------|
B|-----------------------------------------------------------------|
G|-9-9-9-9-9-9-9-9-9-9-9-9--5--5-5-5-5-5--4--4-4-4-4-4-4-4-4-4-4-4-|
D|-9-9-9-9-9-9-9-9-9-9-9-9--5--5-5-5-5-5--4--4-4-4-4-4-4-4-4-4-4-4-|
A|-7-7-7-7-7-7-7-7-7-7-7-7--3--3-3-3-3-3--2--2-2-2-2-2-2-2-2-2-2-2-|
E|-----------------------------------------------------------------|

"These two vampires met one night" (0:58)
e|-----------------------------------------------------------------|
B|-----------------------------------------------------------------|
G|----2-2-2-2-4-4-4-4-5-5-5-4-4-4---2-2-2-2-4-4-4-4-5-5-5-4-4-4----|
D|----2-2-2-2-4-4-4-4-5-5-5-4-4-4---2-2-2-2-4-4-4-4-5-5-5-4-4-4----|
A|----0-0-0-0-2-2-2-2-3-3-3-2-2-2---0-0-0-0-2-2-2-2-3-3-3-2-2-2----|
E|-----------------------------------------------------------------|

"Tonight, tonight, tonight" (1:13)
e|-----------------------------------------------------------------|
B|-----------------------------------------------------------------|
G|-2-2-2-2-2-2-2-2-4-4-4-4-4-4-4-4-5-5-5-5-5-5-5-5-7-7-7-7-7-7-7-7-|
D|-2-2-2-2-2-2-2-2-4-4-4-4-4-4-4-4-5-5-5-5-5-5-5-5-7-7-7-7-7-7-7-7-|
A|-0-0-0-0-0-0-0-0-2-2-2-2-2-2-2-2-3-3-3-3-3-3-3-3-5-5-5-5-5-5-5-5-|
E|-----------------------------------------------------------------|

Those 4 lines are used throughout the rest of the song.

Enjoy.
Tap to rate this tab
 
# A B C D E F G H I J K L M N O P Q R S T U V W X Y Z