Song name
# A B C D E F G H I J K L M N O P Q R S T U V W X Y Z

Deadlines - Horrible Night tab

Band: Deadlines
song: Horrible Night

Tabber: John Cukras
email: riffreaper@yahoo.com

tuning: normal

Riff 1:
E----------------------------------------------|
B----------------------------------------------|
G----------------------------------------------|
D-9-9-9-9-9-9-9-9------------------------------|
A-7-7-7-7-7-7-7-7---7-77777-1010-13-1313-------|
E-------------------5-55555-888--11-1111 x's 8-|

Riff 2:
E------------|
B------------|
G------------|
D------------|
A-55555-77777
E-33333-55555 x's 4

Riff 1

Riff 2

Riff 1 x's 4

Riff 2

End:
E-----------------|
B-----------------|
G-----------------|
D-9-9-9-9-9-9-9---|
A-7-7-7-7-7-7-7-7-|
E---------------5-|
Tap to rate this tab
# A B C D E F G H I J K L M N O P Q R S T U V W X Y Z