Song name
# A B C D E F G H I J K L M N O P Q R S T U V W X Y Z

Deadlines - Death And Life Of Rock And Roll tab

Help us improve GuitareTab! Take a short survey!
Band: Deadlines
Song: The Death and Life of Rock N Roll

Tabber: John Cukras
Email: riffreaper@yahoo.com

Tuning: normal

Riff 1:
E-----------------------------------------|
B-----------------------------------------|
G-----------------------------------------|
D-----------------------------------------|
A--------------------------99-999-999-999-|
E-0--6--7--6 x's 3---0--6--77-777-777-777-|

Riff 2:
E--------------------|
B--------------------|
G--------------------|
D-9-99-77------------|
A-7-77-55-88-7-------|
E---------66-5 x's 8-|

Riff 3:
E----------|
B----------|
G----------|
D----------|
A-8888-7777
E-6666-5555 x's 4

Riff 2

Riff 3

Riff 4:
E------------------|
B------------------|
G------------------|
D------------------|
A-8--8--8--8-88888-|
E-6--6--6--6-66666-|

Riff 2 x's 4

End:
E------------------------------|
B------------------------------|
G------------------------------|
D----------------------------2-|
A-8888-7777--------777777777-2-|
E-6666-5555 x's 4--555555555-0-|
Related for Death And Life Of Rock And Roll tab