Song name
# A B C D E F G H I J K L M N O P Q R S T U V W X Y Z

Deadlines - Last Nail In Your Coffin tab

Help us improve GuitareTab! Take a short survey!
Band: Deadlines
Song: Last Nail In Your Coffin

Tabber: John Cukras
email: riffreaper@yahoo.com

Tuning: normal

Riff 1:
E--------------------------------------|
B--------------------------------------|
G--------------------------------------|
D-----------------------99999999-------|
A-9-9-9-9-999--99999999-77777777-------|
E-7-7-7-7-777--77777777--------- x's 8-|

Riff 2:
E----------------------------------|
B----------------------------------|
G----------------------------------|
D----------------------------------|
A-1212121212121212-1414141414141414
E-1010101010101010-1212121212121212 x's 4

Riff 1

Riff 2

Riff 1 x's 4 (under solo)

Riff 2

Solo:
E-----------------------------------------------------------------------------------------------------------|
B---------------------------------77777777-----------------------7777777------------------------------------|
G----------------------9-10-9-7-9----------11-10-9-----------------------11-10-9----------------------------|
D---------------7-9-10-----------------------------11-10-9-10-11-----------------11-10-9-10-11-10-9-10-11^--|
A-22222-5-77777---------------------------------------------------------------------------------------------|
E-----------------------------------------------------------------------------------------------------------|
Related for Last Nail In Your Coffin tab