Song name
# A B C D E F G H I J K L M N O P Q R S T U V W X Y Z

Deadlines - Dead Indeed tab

Band: Deadlines
song: Dead Indeed

Tabber: John Cukras
email: riffreaper@yahoo.com

Tuning: normal

Riff 1:
E------------------------------------------------|
B------------------------------------------------|
G------------------------------------------------|
D-2--2--2--2-----2-------------------------------|
A-2--2--2--2--7--2-------------------------------|
E-0--0--0--0--5--0--777-10-7-10-7-555-8-5-8-5-0--|

Riff 2:
E------------------------------------------------------------|
B------------------------------------------------------------|
G------------------------------------------------------------|
D-2222--2222---------222-------------------------------------|
A-2222--2222--777777-222-------------------------------------|
E-0000--0000--555555-000---777-10-7-10-7-555-8-5-8-5-0 x's 4-|

Riff 3:
E---------------------------------------------------------------------|
B---------------------------------------------------------------------|
G---------------------------------------------------------------------|
D-2-------------------------------------------------------------------|
A-2--5/7-777777-999999--------777777-999999--------77777-999999999999-|
E-0--3/5-555555-777777 x's 4--555555-777777 x's 2--55555-777777777777-|

Riff 4:
E---------------------------------------------------------------------------------|
B---------------------------------------------------------------------------------|
G---------------------------------------------------------------------------------|
D----------------------------77-10-11-12-11-10-9 x's 2----------------------------|
A-77-10-11-12-11-10-9 x's 4-----------------------------77-10-11-12-11-10-9 x's 2-|
E---------------------------------------------------------------------------------|

E---------------------------------------------------------------|
B---------------------------------------------------------------|
G---------------------------------------------------------------|
D---------------------------------------------------------------|
A------------------------------77-10-11-12-11-10-9 x's 2--------|
E-777-10-7-10-7-555-8-5-8-5-0---------------------        x's 2-|

Riff 2

Outro:
E-0--------0-|
B---0-----0--|
G-----0--0---|
D------------|
A------------|
E------------|
Tap to rate this tab
# A B C D E F G H I J K L M N O P Q R S T U V W X Y Z