Song name
# A B C D E F G H I J K L M N O P Q R S T U V W X Y Z

Deadly Circus Fire - Threnody tab

C|--0----0--|
G|----------|
C|----------| Intro
F|----------|
A|----------|
d|----------|


C|--1-0--0-1-0---3/5--0-3-6-3Ph0-3-0--|
G|--1-0--0-1-0---3/5-------------3-0--|
C|--1-0--0-1-0------------------------| Pre Chorus
F|----------------------PM-PM---------|
A|------------------------------------|
d|------------------------------------|


C |--1-000-1-00---0-1---4-0-3-4-3-|
G |-------------1-----3-----------|
C |-------------------------------|  Verse with PM
F |-------------------------------|
A |-------------------------------|
d |-------------------------------|


C|--15-14-0-15-14-0000----15-14-0-15v-14v-0--|
G|--15-14-0-15-14-0000----15-14-0-15v-14v----|
C|-------------------------------------------|  Chorus
F|----------------PMPM-----------------------|
A|-------------------------------------------|             
d|-------------------------------------------|                     

                              
C|--9-9----9-9-----9-9-----9-9--|                                           
G|--------------13--------------|                  
C|------12--------------10------| Chorus
F|------------------------------|
A|------------------------------|
d|------------------------------|


C|--12/13-12Ho13--8-8-9Po8-8-9Po8-|-8-9Po8-8-8-9Po8-9Po8-|-8/0-0-1/3---|         
G|--------------------------------|----------------------|-------------|
C|--------------------------------|----------------------|-------------| Chorus
F|--------------------------------|------first time------|-second time-| 
A|--------------------------------|----------------------|-------------|
d|--------------------------------|----------------------|-------------|


C|--6-5-0-6-5-0000---6-5-0-6-5-0--|
G|--6-5-0-6-5-0000---6-5-0-6-5-0--|
C|--6-5-0-6-5-0000---6-5-0-6-5-0--| Break 1
F|--------------------------------|
A|--------------------------------|
d|--------------------------------|


C|--0-1-4-------4-3-0---4-0-5-6---6---------------------|
G|--------3-2-0-------6---------8-----------------------|
C|------------------------------------------------------| Break 2
F|------------------------------------------------------|
A|------------------------------------------------------|
d|------------------------------------------------------|


Structure:


Intro

Pre chorus x 4

Verse x 4

Pre chorus x 4

Verse x 4

Pre Chorus x 4

Chorus x 2

Verse x 4

Pre chorus x 4

Verse x 4

Pre Chorus x 4

Chorus x 2

Break 1 x 2

Break 2 x 12

Break 1 x 2

Chorus x 2

Break x 2

www.myspace.com\deadlycircusfire
www.deadlycircusfire.com
Tap to rate this tab
# A B C D E F G H I J K L M N O P Q R S T U V W X Y Z