Song name
# A B C D E F G H I J K L M N O P Q R S T U V W X Y Z

Deadly Noisemaker - Valley Of Velvet Feelings tab

Song: Valley Of Velvet Feelings
Artist: Deadly Noisemaker


Tuning (low to high): D A D G H E

E----------------------------------------------------------------
H----------------------------------------------------------------
G----------------------------------------------------------------
D-----3-5--3~~~----3-5--7^8^7-----3-3--5--3~~~-----3-5--7-5-3----
A---3------------3--------------0----------------0---------------
D-3------------3--------------0----------------0-----------------


E--------------------
H--------------------
G--------------------
D-3-3-3-5-5--0 0-0-0-
A-3-3-3-3-3--0-0-0-0-
D-3-3-3-3-3--0-0-0-0-


E-----------------------
H-----------------------
G-10--10--10---7---7---7
D--x---x---x---x---x---x
A--8---8---8---5---5---5
D-----------------------
Tap to rate this tab
# A B C D E F G H I J K L M N O P Q R S T U V W X Y Z