Song name
# A B C D E F G H I J K L M N O P Q R S T U V W X Y Z

Deadmau5 - Ghosts N Stuff tab

Tabbed by:Jeremee7
Email:jeremyplays2@yahoo.com

My first tab... hope you like it!

*Listen to song to get the rythm.

Tuning:Drop D

Intro
e|--------------------------------------------------------------------------|
B|--------------------------------------------------------------------------|
G|--------------------------------------------------------------------------|
D|--------------------------------------------------------------------------|
A|8----5----3----1----------------------------------------------------------|
D|8----5----3----1----------------------------------------------------------|

Verse
e|--------------------------------------------------------------------------|
B|--------------------------------------------------------------------------|
G|-3-3-3-3----3-3--------3-3-3----3-----------------------------------------|
D|-3-3-3-3----3-3--------3-3-3----3-----------------------------------------|
A|-1-1-1-1----1-1--------1-1-1----1----3+-----------------------------------|
D|2--------------2+---2-1---------------------------------------------------|

Chorus
e|--------------------------------------------------------------------------|
B|--------------------------------------------------------------------------|
G|3-7-7-7-7----5----3--1-1-1-1-1-1------------------------------------------|
D|3-7-7-7-7----5----3--1-1-1-1-1-1------------------------------------------|
A|1-5-5-5-5----3----1-------------------------------------------------------|
D|--------------------------------------------------------------------------|

Breakdown
e|--------------------------------------------------------------------------|
B|--------------------------------------------------------------------------|
G|--------------------------------------------------------------------------|
D|8pm-8pm-8pm-8pm----5pm-----3pm----1pm-------------------------------------|
A|8pm-8pm-8pm-8pm----5pm-----3pm----1pm-------------------------------------|
D|--------------------------------------------------------------------------|

e|--------------------------------------------------------------------------|
B|--------------------------------------------------------------------------|
G|--------------------------------------------------------------------------|
D|8pm-8pm-8pm-8pm----5pm-----3pm----0pm-1pm---------------------------------|
A|8pm-8pm-8pm-8pm----5pm-----3pm----0pm-1pm---------------------------------|
D|--------------------------------------------------------------------------|

Verse 2
e|--------------------------------------------------------------------------|
B|--------------------------------------------------------------------------|
G|5-5-5-5----5-5--------5-5-5--5----3---------------------------------------|
D|5-5-5-5----5-5--------5-5-5--5----3---------------------------------------|
A|3-3-3-3----3-3--------3-3-3--3-3+-1---------------------------------------|
D|---------------2+--2-1----------------------------------------------------|

Outro
e|---------------------------------------------------------------------------|
B|---------------------------------------------------------------------------|
G|---------------------------------------------------------------------------|
D|---------------------------------------------------------------------------|
A|---------------------------------------------------------------------------|
D|8-8-8-8---5---3---1-1-1-1-1-1-1--------------------------------------------|

Order:
Intro x2
Verse 1  x2
Chorus  x2
Verse 1
Intro x2
Chorus x4
Verse 1  x2
Chorus x2
Breakdown
Verse 2
Verse 1
Chorus x8
Intro x6
Outro x6

************************************
| +   harmonic
| pm  palm mute
************************************
Tap to rate this tab
 
# A B C D E F G H I J K L M N O P Q R S T U V W X Y Z