Song name
# A B C D E F G H I J K L M N O P Q R S T U V W X Y Z

Deadmau5 - Moar Ghosts N Stuff tab

Artist: DeadMau5
Song: Moar Ghosts n Stuff


Main Riff:

e|-----------9--------------------9---------|
B|---11-9-11------9h11-------9h11------9h11-|
G|-------------10---------10--------10------|
D|-8--------------------8-------------------|
A|------------------------------------------|
E|------------------------------------------|

Bridge:

e|------|
B|------|
G|-10~--|
D|------|
A|------|
E|------|

Breakdown:

e|-------------------------|
B|-11----14----13----11-14-|
G|----10----10----10-------|
D|-------------------------|
A|-------------------------|
E|-------------------------|

Solo:

e|--------9-11-----------9---8---------------------|
B|-----9-------11--9-8----------11--9-11---9-11----|
G|-10----------------------------------------------|
D|-------------------------------------------------|
A|-------------------------------------------------|
E|-------------------------------------------------|

e|-8--13-9------------9-11----------9---8------------------|
B|---------11------9-------11--9-8---------11--9-11---9-11-|
G|------------10-------------------------------------------|
D|---------------------------------------------------------|
A|---------------------------------------------------------|
E|---------------------------------------------------------|

e|------------|
B|------9-----|
G|-10---------|
D|---------11-|
A|------------|
E|------------|

Chords backing solo:

Bbm
Ab
Gb
Eb

Please post any corrections or comments!
Tap to rate this tab
 
# A B C D E F G H I J K L M N O P Q R S T U V W X Y Z