Song name
# A B C D E F G H I J K L M N O P Q R S T U V W X Y Z

Deadmau5 - Raise Your Weapon tab

-------------------------------------------------------------------------------
			     RAISE YOUR WEAPON - deadmau5
-------------------------------------------------------------------------------
Tabbed by: Brian
Email: bcorker123@gmail.

The song itself is played by a piano, so I decided to break up the notes into
Lead and Rhythm sections if you have someone else to play guitar with.
However, I put up the combined authentic piano tablature for those of you
daring enough. The only drag with trying to play the "Rhythm" part is that
you have to tune down to C# and F#, but keep all the other strings under
standard tuning to play both parts. Just a little weird for those of you that
don't regularly cover all piano songs. And you can even use the integrated
Rhythm/Lead section as a reference to help you two sync up. Also, I think
the way I wrote it out seems simple enough for the beat, but listen to the
song for the exact rhythm! Oh, and one last thing, use what it says in the
title "SECTION" part for the specific tuning for that part. Anyway, email me
if you have any questions, comments, or even praise! Feedback of any kind
is appreciated! Thanks!

LEAD SECTION: Standard Tuning: EADGBe
e-4---------------6-------7-----------4-------6-7-------6---------------|
B---------4-----------------9-------7-------------------7-------9-------|
G-4---3---4---4---6---6---8-8---4---6-4---3---6-8---4---6---6---8---9---|
D-----------------------------------------------------------------------|
A-----------------------------------------------------------------------|
E-----------------------------------------------------------------------|


RHYTHM SECTION: Custom Tuning: C#F#DGBe
e------------------------------------------------------------------------|
B------------------------------------------------------------------------|
G------------------------------------------------------------------------|
D------------------------------------------------------------------------|
A-7-----9-5-------7-------9-2-------4-5-------7-9-------7-----9-2--------|
E-5-----7-3-------5-------7-0-------2-3-------5-7-------5-----7-0--------|


BOTH SECTIONS (FULL PIANO): Custom Tuning: C#F#DGBe
e-4---------------6-------7-----------4-------6-7-------6---------------|
B---------4-----------------9-------7-------------------7-------9-------|
G-4---3---4---4---6---6---8-8---4---6-4---3---6-8---4---6---6---8---9---|
D-----------------------------------------------------------------------|
A-7-----9-5-------7-------9-2-------4-5-------7-9-------7-----9-2-------|
E-5-----7-3-------5-------7-0-------2-3-------5-7-------5-----7-0-------|

(Even though there's no need for any of these in this tab, I thought
I'd be nice and include the symbols anyway)

************************************

| /   slide up
| \   slide down
| h   hammer-on
| p   pull-off
| ~   vibrato
| +   harmonic
| x   Mute note
| b   Bend
| pb  Pre-bend
| br  Bend release
| pbr Pre-bend release
| brb Bend release bend

************************************
Tap to rate this tab
 
# A B C D E F G H I J K L M N O P Q R S T U V W X Y Z